Factory 81 - Insane In The Brain Chords & Tabs

 

Insane In The Brain Chords & Tabs

Factory 81 Chords & Tabs

Version: 2 Type: Tab 0 ratings
1 star 2 stars 3 stars 4 stars 5 stars
comments

Insane In The Brain Tab

   
	     SONG: Insane In The Brain (Cypress Hill Cover)
	     BAND: Factory 81
	    ALBUM: Take A Bite Outta Rhyme
   TRANSCRIBED BY: Chris Frazier (btabmaster@hotmail.com)
	     DATE: 02-24-2002
              URL: www.shatteredtabs.cjb.net (Shattered Tabs)
	    EMAIL: btabmaster@hotmail.com

 

	TUNING: Drop D and down 1 step (C G C F A D)

     Riff 1: (intro)
    D|-------------------------|
    A|-------------------------|
    F|-------------------------|
    C|-------------------------|
    G|-------------------------|
    C|-0-0-1-0--0-0-0-0-1-0-0--|

     Riff 2: (chorus riff 1)
    D|-------------------------|
    A|-------------------------|
    F|-------------------------|
    C|-0-0-1-0--0-0-0-0-1-0-0--|
    G|-0-0-1-0--0-0-0-0-1-0-0--|
    C|-0-0-1-0--0-0-0-0-1-0-0--|
[ Tab from: http://www.guitartabs.cc/tabs/f/factory_81/insane_in_the_brain_tab_ver_2.html ]
     Riff 3: (chorus riff 2)
    D|----------------------|
    A|----------------------|
    F|----------------------| [x]=natural harmonic
    C|-0-0-1-0--0-0-0-0-[7]-|
    G|-0-0-1-0--0-0-0-0-----|
    C|-0-0-1-0--0-0-0-0-----|

     Riff 4: (bass verse)
    D|---------|
    A|---------|
    F|---------|
    C|---------|
    G|---------|
    C|-0---7-7-|

     Riff 5: (guitar verse 1)
    D|-18/20-|
    A|-------|
    F|-------|
    C|-------|
    G|-------|
    C|-------

     Riff 6:
    D|---|
    A|---|
    F|---| let ring
    C|-0-| after first chorus
    G|-0-|
    C|-0-|

     Riff 7: (guitar verse 2)
    D|---------------|
    A|---------------|
    F|-17b-----------| b=bend
    C|---------------| pm=palm mute
    G|---------------|
    C|-----0-0-0-0-0-|
     PM    - - - - -

     Riff 8: Play riff 2 palm muted

     Riff 9: (guitar verse 3a)
    D|------|
    A|------|
    F|------|
    C|-0----|
    G|-0----|
    C|-0----|
     PM   -

     Riff 10: (guitar verse 3b)
    D|-----------|
    A|-14v--15---|
    F|-----------| v=vibrato
    C|-----------| 14 is actually played 12 times and then the 15 is played but, i prefer the
    G|-----------| vibrato over tremlo picking the note. try it both ways and choose your own.
    C|-----------|
Comments