Factory 81 - Absentee Generation Chords & Tabs

 

Absentee Generation Chords & Tabs

Factory 81 Chords & Tabs

Version: 1 Type: Tab 0 ratings
1 star 2 stars 3 stars 4 stars 5 stars
comments

Absentee Generation Tab

   
Band: Factory 81
song: absentee generation

Tabber: John Cukras
Email: riffreaper@yahoo.com

Tuning: C G C F A D

Riff 1: 12, 11.
D------------------------------|
A------------------------------|
F------------------------------|
C-9999-1212-1111-77777---------|
G------------------------------|
C---------------------   x's 4-|
pm.... .... .... .....

Riff 2:
D---------------------------------------------------|
A---------------------------------------------------|
F---------------------------------------------------|
C---------------------------------------------------|
G---------99-88-----99-88-----99-88-7777-5555-------|
C-000-000-------000-------000-------7777-5555 x's 2-|
pm... ...       ...       ...

Riff 3:
D-----------------------------------------------|
A-----------------------------------------------|
F-----------------------------------------------|
C-----------------------------------------------|
G-----5-5/7-----5-5/7-555555-77777-33333--------|
C-000-5-5/7-000-5-5/7-555555-77777-33333  x's 2-|
pm...       ...

Riff 1 x's 8

Riff 2

Riff 3

Riff 1 x's 12

Riff 2

Riff 3
[ Tab from: http://www.guitartabs.cc/tabs/f/factory_81/absentee_generation_tab.html ]
Riff 3:
D-----------------------------------------------|
A-----------------------------------------------|
F-----------------------------------------------|
C-----------------------------------------------|
G-0-00-0-000--3-33-3-333--------0-00-0-333-0--0-|
C-0-00-0-000--3-33-3-333 x's 3--0-00-0-333-0--0-|
pm                                     ...

Riff 4:
D-----------12-------19-17-15-1212-----------12-----------12-|
A-3-3/5-888----3-3/5---------------3-3/5-888----3-3/5-888----|
F------------------------------------------------------------|
C------------------------------------------------------------|
G------------------------------------------------------------|
C------------------------------------------------------------|

D---------------12-10-8-6---------12-10-8-6---------12-10-8888-151515-12-------|
A-3-3/5555-888------------7-55555-----------7-55555----------------------3-3/5-|
F------------------------------------------------------------------------------|
C------------------------------------------------------------------------------|
G------------------------------------------------------------------------------|
C------------------------------------------------------------------------------|
Comments