Face To Face - Blister In The Sun Chords & Tabs

 

Blister In The Sun Chords & Tabs

Face To Face Chords & Tabs

Version: 1 Type: Tab 0 ratings
1 star 2 stars 3 stars 4 stars 5 stars
comments

Blister In The Sun Tab

Very simple song (so I hope I have it right).  The mutes in the intro are not
entirely nessessary, they just seem to appear when changing strings. Also for
the chorus to get the timing for the chord changes I'm not totally sure of the
lyrics, so they're just there for timing really.

Intro & Verse
|-------------------------------------
|-------------------------------------
|-----5-5---------5-5-5---------5-----
|-5-x-5-5-x-5-5-x-5-5-5-x-5-5-x-5-x-5-
|-5-x-3-3-x-5-5-x-3-3-3-x-5-5-x-3-x-5-
|-3-x-----x-3-3-x-------x-3-3-x---x-3-
[ Tab from: http://www.guitartabs.cc/tabs/f/face_to_face/blister_in_the_sun_tab.html ]
Chorus (strum)
|-----------------------------------------------------------------------------
|-----------------------------------------------------------------------------
|----------9----------5-----------------------------9-------5-----------------
|----------9----------5-----------------------------9-------5-----------------
|----------7----------3-----------------------------7-------3-----------------
|-----------------------------------------------------------------------------
 let me go on, like a blister in the sun, let me go on, because I know you're 

---------
---------
-----7---
-----7---
-----5---
---------
 the one

verse
chorus
intro riff (with a bass fill)
chorus

in the last chorus a second guitar plays these chords
|--7-------8-
|--8-------8-
|--7-------9-
|------------
|------------
|------------

then finish with the intro riff and that's all.  any questions? andrewbiles@hotmail.com
Comments