Face First - The First Step To Selling Out Chords & Tabs

 

The First Step To Selling Out Chords & Tabs

Face First Chords & Tabs

Version: 1 Type: Bass Tab 0 ratings
1 star 2 stars 3 stars 4 stars 5 stars
comments

The First Step To Selling Out Bass Tab

------------------------------------------------------------------------------------------------
                           Face-First - The First Step To Selling Out
-----------------------------------------------------------------------------------------------
Tabbed By: Trevor Brubaker (skankintrevor@msn.com)
Album: You'll Never Eat Fast Food Again
*=strum
Intro
G-----------------------------------------------------------------------------------
D-----------------------------------------------------------------------------------
A----6-6--------1-1---------3-3----------------------------------------------------
E----------------------------------------4-(hold)-----------------------------------
 
Intro (Cont..)
G-----------------------------------------------------------------------------------
D-----------------------------------------------------------------------------------
A----6(hold)----------1(hold)-----------3(hold)--------------------------------------
E-------------------------------------------------------------4-(hold)--------------
 
Chorus
G-----------------------------------------------------------------------------------
D--------------------5-6----8-8-8-8-8-8---6-8-10-10-10-10-10-10------------------
A----6-6-6-6-6-6--------------------------------------------------------------------
E------------------------------------------------------------------------------------
 
Chorus (Cont.)
G-----------------------------------------------------------------------------------
D------6-5-----5--6--5-----5-------------------------------------------------------
A-----------6------------6----------------------------------------------------------
E------------------------------------------------------------------------------------
 
Verse
G-----------------------------------------------------------------------------------
D-----------------------------------------------------------------------------------
A------6*------------------1*------------------------------------------------------
E-----------------------------------------------------------------------------------
 
Bridge
G-----------------------------------------------------------------------------------
D-----------------------------------------------------------------------------------
A-------6*----------------1*--------------3*--------------------------------------
E-------------------------------------------------------------4*-------------------
 
Rap
G-----------------------------------------------------------------------------------
D-------------------5-6----8-8-8-8-8-8---6-5--------------------------------------
A---6-6-6-6-6-6--------------------------------------------------------------------
E-----------------------------------------------------------------------------------
 
Rap (cont...)
G-----------------------------------------------------------------------------------
D-----------------------------------------------------------------------------------
A---6-6-6-6-6-6-----------1-1-1-1-1-1-1-------------------------------------------
E------------------------------------------------------------------------------------
 
You can figure out the reptitions of each part and the speed yourself, but I swear to you, 
this tab is flawless. E-mail with proof that it is not (skankintrevor@msn.com).

[ Tab from: http://www.guitartabs.cc/tabs/f/face_first/the_first_step_to_selling_out_btab.html ]
Comments