Fabulosos Cadillacs - Calaveras Y Diablitos Chords & Tabs

 

Calaveras Y Diablitos Chords & Tabs

Fabulosos Cadillacs Chords & Tabs

Version: 1 Type: Tab 0 ratings
1 star 2 stars 3 stars 4 stars 5 stars
comments

Calaveras Y Diablitos Tab

   
Fabulosos Cadillacs, Calaveras y Diablitos.
 Tabbed by Juaco Flores, jvfpaco@hotmail.com.
  

 Los Fabulosos Cadillacs
 CALAVERAS Y DIABLITOS
 


intro: (2x)
----------------------------------------------
----------------------------------------------
----------------------------------------------
------7---4-7---6--------7--------------------
--4-7----5----7-------4-7---3-5-3-2-----------
----------------------------------------------

(2x)              ~~~~~~~~
----------------------------------------------
--5-5-5-5---7--9--7----(7)/(9)--9-------------
--6-6-6-6---7--9--7----(7)/(9)--9-------------
----------------------------------------------
----------------------------------------------
----------------------------------------------
[ Tab from: http://www.guitartabs.cc/tabs/f/fabulosos_cadillacs/calaveras_y_diablitos_tab.html ]
(1x)                               ~~~~~
-----------------------------------9-------------
--5-5-5-5---7--9--7----(7)/(9)--9--10-----7-7-9-9
--6-6-6-6---7--9--7----(7)/(9)--9--------7-7-9-9-
-------------------------------------------------
-------------------------------------------------
-------------------------------------------------

verso:
A
Yo a vos no le creo nada
     D              E
Como vos vas a creer en mi...?
A
Universo de tierra y agua
       D         E
me alejan de vos

A
Las tumbas son para los muertos
    D              E
Las flores para sentirse bien
A
La vida es para gozarla
    D              E
La vida es para vivirla mejor


coro:(2x)
A                     D  E
Calaveras y diablitos.... (2x)
A                        D        E       A
Calaveras y diablitos....Invaden my corazon

intelude:
D
No quiero morir sin antes haber amado,
    A
pero tampoco quiero morir de amor
D
Calaveras y daiblitos
B              E
Invaden mi corazon


verso:(1x)

coro:(1x)

terninacion (2X):
A   D     E
uuh uuuuh uuh

 
:: Ultimate Guitar Archive :: 
http://www.ultimate-guitar.com 



Comments