Fabolous - Trade It All Chords & Tabs

 

Trade It All Chords & Tabs

Fabolous Chords & Tabs

Version: 1 Type: Tab 0 ratings
1 star 2 stars 3 stars 4 stars 5 stars
comments

Trade It All Tab

   
-----------------------------------------------------------------------------
Fabolous - Trade it all
Tabbed by:Raidlink(Dashone)
Email:weexor@gmail.com

Tuning: E A D G B E

| /  slide up
| \  slide down
| h  hammer-on
| p  pull-off
| ~  vibrato
| +  harmonic
| x  Mute note


This is played out through the whole song.
e|---4-4-x--4-x-----4-4-x--4-x-----7-7-x--7-x--------------------------------|
B|---4-4-x--4-x-----5-5-x--5-x-----9-9-x--9-x-----5-5-x--4-x-----------------|
G|---4-4-x--4-x-----4-4-x--4-x-----8-8-x--8-x-----6-6-x--4-x-----------------|
D|------------------------------------------------5-5-x--4-x-----------------|
A|---------------------------------------------------------------------------|
E|---------------------------------------------------------------------------|
[ Tab from: http://www.guitartabs.cc/tabs/f/fabolous/trade_it_all_tab.html ]
   Riff 1
e|-11h13p11-9h11p9---\1h2p1h2p1h2--------------------------------------------|
B|---------------------------------------------------------------------------|
G|---------------------------------------------------------------------------|
D|---------------------------------------------------------------------------|
A|---------------------------------------------------------------------------|
E|---------------------------------------------------------------------------|

    Riff 2		Riff 3
e|----------------------6h8p6h8p6h8-/10--------------------------------------|
B|---------------------------------------------------------------------------|
G|--9h10p9h10p9-/12----------------------------------------------------------|
D|---------------------------------------------------------------------------|
A|---------------------------------------------------------------------------|
E|---------------------------------------------------------------------------|
Comments