Fabolous - Cant Let You Go Chords & Tabs

 

Cant Let You Go Chords & Tabs

Fabolous Chords & Tabs

Version: 1 Type: Tab 1 rating
1 star 2 stars 3 stars 4 stars 5 stars
comments

Cant Let You Go Tab

   
Fabolous - Can't Let You Go

Just listen to the song to see how it goes.
This is the main guitar theres a fill in guitar that i didnt tab.
And this isnt the exact chords i dont think but its easier than 
playing the right chords. if u want u can play the exact chords you
play C#/Dbm7 instead of C#/Dbm oh the first 2 chords(I just put C#
for short). 
[ Tab from: http://www.guitartabs.cc/tabs/f/fabolous/cant_let_you_go_tab.html ]
  C#                         C#      Fm     D#/Ebm C#
e|--------------------------|--------------------------|
B|-5--4h5------------5---5--|-5------9------7------5---|
G|---------6-----6----------|------------------------6-|
D|------------6-------------|--------------------------|
A|-4--4----------4------4---|--------------------------|
E|------------------(4)-----|--------------------------|

  C#           C#
e|------------|---------------------|
B|------------|--------------5---5--|
G|---4---4-4--|--4h6----------------|
D|-----6------|-------6--6----------|
A|-4----------|---------4---(4)--4--|
E|------------|---------------------|



Chords

  C#/Dbm     Fm       D#/Ebm
e|--4--|   e|--8--|  e|--6--|
B|--5--|   B|--9--|  B|--7--|
G|--6--|   G|--10-|  G|--8--|
D|--6--|   D|--10-|  D|--8--|
A|--4--|   A|--8--|  A|--6--|
E|--4--|   E|--8--|  E|--6--|



AOL SN: WIERDdude2005
Website: http://www.angelfire.com/weird2/wierddude2005
Comments