F-minus - Forget Yourself Chords & Tabs

 

Forget Yourself Chords & Tabs

F-minus Chords & Tabs

Version: 1 Type: Tab

Forget Yourself Tab

   
-------------------------------------------------------------------------------
                           FORGET YOURSELF - f-minus
-------------------------------------------------------------------------------
Tabbed by: Marc Tasikas
Email: marcs_email_attempt_3@hotmail.com

This song is from the give 'em the boot II disc and is very simple, uses mostly
powerchords but im not too sure about some parts please email me if you have any
comments or suggestions.


Tuning: standard
[ Tab from: http://www.guitartabs.cc/tabs/f/f_minus/forget_yourself_tab.html ]
e|-----------------------------------------------------------------|
B|-----------------------------------------------------------------|
G|-----------------------------------------------------------------|
D|---6-6\3--3-3-3-3-----6-6/3--3-3-3-3-----------------------------|
A|---6-6\3--3-3-3-3-----6-6/3--3-3-3-3-----------------------------|
E|---4-4\1--1-1-1-1-----4-4/1--1-1-1-1-----------------------------|   X5
            x x x x            x x x x
e|-----------------------------------------------------------------|
B|-----------------------------------------------------------------|
G|-----------------------------------------------------------------|
D|---6-6\3--3-3-3-3----[7-7-7-7-7-7/9-9]---------------------------|
A|---6-6\3--3-3-3-3----[7-7-7-7-7-7/9-9]---------------------------|
E|---4-4\1--1-1-1-1----[5-5-5-5-5-5/7-7]---------------------------|
            x x x x     \_____________/
                                X4
e|-----------------------------------------------------------------|
B|-----------------------------------------------------------------|
G|-----------------------------------------------------------------|
D|---6-6\3--3-3-3-3-----6-6/3--3-3-3-3-----------------------------|
A|---6-6\3--3-3-3-3-----6-6/3--3-3-3-3-----------------------------|
E|---4-4\1--1-1-1-1-----4-4/1--1-1-1-1-----------------------------| X4
            x x x x            x x x x 
e|--------------------------------------------------------------|
B|--------------------------------------------------------------|
G|--------------------------------------------------------------|
D|--6-6-7-7-7-7-7-7/9-9---7-7-7-7-7-7/9-9-----------------------|
A|--6-6-7-7-7-7-7-7/9-9---7-7-7-7-7-7/9-9-----------------------|
E|--4-4-5-5-5-5-5-5/7-7---5-5-5-5-5-5/7-7-----------------------|

e|----------------------------------------------------------------|
B|----------------------------------------------------------------|
G|----------------------------------------------------------------|
D|--7-7-7-7-7-7/9-9---7-7-7-7-7-7/9-9-----------------------------|
A|--7-7-7-7-7-7/9-9---7-7-7-7-7-7/9-9-----------------------------|
E|--5-5-5-5-5-5/7-7---5-5-5-5-5-5/7-7-----------------------------|

e|------------------------------------|
B|------------------------------------|
G|------------------------------------|
D|------------------------------------|
A|-------5-4----2-2-------------------|
E|----3-------3-----------------------| X4

e|-----------------------------------------------------------------|
B|-----------------------------------------------------------------|
G|-----------------------------------------------------------------|
D|---6-6\3--3-3-3-3-----6-6/3--3-3-3-3-----------------------------|
A|---6-6\3--3-3-3-3-----6-6/3--3-3-3-3-----------------------------|
E|---4-4\1--1-1-1-1-----4-4/1--1-1-1-1-----------------------------| X4
            x x x x            x x x x
e|--------------------------------------------------------------|
B|--------------------------------------------------------------|
G|--------------------------------------------------------------|
D|--6-6-7-7-7-7-7-7/9-9---7-7-7-7-7-7/9-9-----------------------|
A|--6-6-7-7-7-7-7-7/9-9---7-7-7-7-7-7/9-9-----------------------|
E|--4-4-5-5-5-5-5-5/7-7---5-5-5-5-5-5/7-7-----------------------|

e|----------------------------------------------------------------|
B|----------------------------------------------------------------|
G|----------------------------------------------------------------|
D|--7-7-7-7-7-7/9-9---7-7-7-7-7-7/9-9-----------------------------|
A|--7-7-7-7-7-7/9-9---7-7-7-7-7-7/9-9-----------------------------|
E|--5-5-5-5-5-5/7-7---5-5-5-5-5-5/7-7-----------------------------|

| /  slide up
| \  slide down
| h  hammer-on
| p  pull-off
| ~  vibrato
| +  harmonic
| x  Mute note
===============================================================================