Exzpl0de - California City Chords & Tabs

 

California City Chords & Tabs

Exzpl0de Chords & Tabs

Version: 1 Type: Bass Tab 0 ratings
1 star 2 stars 3 stars 4 stars 5 stars
comments

California City Bass Tab

                      ExZpl0de - California city  (this is pretty good)!
Intro
E)------000-----------------3----+
A)-----------55--2-3-5--3h2------+
D)-------------------------------+
G)-------------------------------+

Verse1
(2x)
E)----------------------------------+
A)--5-3---3---3---5-----------------+
D)----------3----------5---------5--+
G)-------------------------7-6-5---4+

Prechorus1
E)----------------------------------------------+
A)-5-555----------------------------------------+
D)--------4-444--------3-44-33---------44-33-22-+
G)-----------------22----------22-33-44---------+

E)-----------------------------------+
A)--5-3---3----3---5-----------------+
D)-----------3---------5--------5----+
G)------------------------7-6-5------+
[ Tab from: http://www.guitartabs.cc/tabs/e/exzpl0de/california_city_btab.html ]
Chorus
E)------------------000--000---------------3-+
A)---------------------------3-5-3-55-3---3--+
D)--------111011------------------------33---+
G)--12-12-------12---------------------------+

Verse2 (same as verse1)
(2x)
E)----------------------------------+
A)--5-3---3---3---5-----------------+
D)----------3----------5---------5--+
G)-------------------------7-6-5---4+

Prechorus2
(x2)
E)-------------------------------------44-+
A)----------------------------------44----+
D)--------------------------------44------+
G)--78-78-78-78-78-78-56-56-56-56---------+

Chorus
(x2)
E)------------------000--000---------------3-+
A)---------------------------3-5-3-55-3---3--+
D)--------111011------------------------33---+
G)--12-12-------12---------------------------+

Outro
E)------000-----------------3----+
A)-----------55--2-3-5--3h2------+
D)-------------------------------+
G)-------------------------------+

Great one,huh?
Comments