Extremoduro - El Dia De La Bestia Chords & Tabs

 

El Dia De La Bestia Chords & Tabs

Extremoduro Chords & Tabs

Version: 2 Type: Bass Tab 0 ratings
1 star 2 stars 3 stars 4 stars 5 stars
comments

El Dia De La Bestia Bass Tab

Here you have the tab bass from a great group, Extremoduro, enjoy.
(Are you interested in this group?, mail me)

He aqui que me he sacado (de una forma chapucerilla) la cancion 
de El Dia de la Bestia de Extremoduro. Si te gusta, mandame un mail,
si tienes otra, tambien y si no, lee el final de la pagina.


        Manolo    -------->>>  i5239@galileo.fie.us.es


d--2--------------2-----0-----0-2------2-----0-----------
g--------------------2-----2--------------2-----2-0------
a--------------------------------------------------------
e------3--------0------------------0-----------------3---
   como en cada dia en el infierno me aburria...


d-----2-----0-----0-2------2-----0-----------
g--------2-----2--------------2-----2-0------       Dos veces mas.
a--------------------------------------------   <---(Two more times).
e---0------------------0-----------------3---
                         ...si llega la poli...         


d-----------------------------------------------------------------
g-----------------------------------------------------------------
a--5--5-5-5--3--3-3-3--2--2-2-2--0--0-0-0-0-2-3--3-3-3--2--2-2-2--
e-----------------------------------------------------------------
...cia no es pecado, vida mia, ponerse a disparar, guarde la artilleria...

[ Tab from: http://www.guitartabs.cc/tabs/e/extremoduro/el_dia_de_la_bestia_btab_ver_2.html ]
d----------------------------   ------------------------------------
g----------------------------   ------------------------------------
a--0--0-0-0--5-5-5-5-6-6-6-6-   --7-7-7-7---------------------------
e----------------------------   -----------7-7-7-7-6-6-6-6-5-5-5-5--
                                  |----------2 veces mas---------|

                                  Me gustaria sonreir, pero no tengo...

d------------------------------------   -----------------------------
g------------------------------------   -----------------------------
a------------------------------5/7---   --------2/3------------------
e--0-0-0-0-3-3-3-3-6-6-6-6-5-5-------   --0-0-0------0-0-0-0-3-2-----
                                          |                     |
   cortame las piernas y aun podre...     |-------10 veces------|

                                          El patio de mi casa...


d----------------------------------------------
g-------------------------0------0-------------
a----------1----------2-2-----------3--1--0----   <------Dos veces.
e------3-3-----------------------------------3-
    |         |    |         |
    |-8 veces-|    |-6 veces-|

    Ya llega el olor...

And then yo repeat all with small diferences...
Vaya, que lo que cambia es muy poco, solo la parte de:
"Hey colega, hacemos una banda..."

g--------------5-------------
a--7-7--5--7-7----7--5--7-7--    ĻAbe illo? 

Si te gusta Extremoduro no dejes de mandarme un mail




Comments