Extreme - Hole Hearted Chords & Tabs

 

Hole Hearted Chords & Tabs

Extreme Chords & Tabs

Version: 3 Type: Tab 0 ratings
1 star 2 stars 3 stars 4 stars 5 stars
comments

Hole Hearted Tab

   
----------------------------------------------------------------------------
			     HOLE HEARTED - Extreme
----------------------------------------------------------------------------
Tabbed by: $corpia_99
Email: killer_donkey900@beer.com

Tuning: half step down (not important though)
Timing: standard 4/4 count

This tab is 100% correct, trust me on this one. If you don't think it is, email me and
tell me why please, this is my first tab and I want to know what you guys think of it.
Hole hearted isnt that difficult to play, its quite hard to understand though so keep
at it and you will soon find it very easy indeed. 

Intro

e|--2-2--4----2-2--4--4------2-2--4----2--4--5----|
B|--3-3--5----3-3--5----5----3-3--5----3--5--6----|
G|--2-2--4----2-2--4------4--2-2--5----2--4--5----|
D|------------------------------------------------|
A|------------------------------------------------|
E|------------------------------------------------|

Main Riff

e|---------------------------------------|
B|---------------------------------------|
G|--0h2-2--2-2-(2)-0--------2-2----------|
D|-------------------2------2-2----------|
A|---------------------3-0---------------|
E|---------------------------------------|

e|---------------------------------------|
B|--5------7---5------7---5--------------|
G|--5h6----7---5h6----7---5h6------------|
D|------7----------7----------7p5--------|
A|---------------------------------------|
E|---------------------------------------|

e|---------------------------------------|
B|-------------------------------3-3-----|
G|--0h2-2-2--2-2-(2)-0-----------2-2-----|
D|---------------------2----0------------|
A|-----------------------3---------------|
E|---------------------------------------|

e|---------------------------------------|
B|---------------------------------------|
G|-----0-------------------------2-2-----|
D|-0h2-------0-------------------2-2-----|
A|-------3h5----2h3-2h3p2p0---0----------|
E|--------------------------3------------|

(repeat main riff x4)

Bridge (chords)

D       A/D  G/D A/D  D    A7(ii)  D/A               A7(v)  A7(ii)
Rivers flow into the sea, yet even the sea is not so full of me
[ Tab from: http://www.guitartabs.cc/tabs/e/extreme/hole_hearted_tab_ver_3.html ]
D         A7(9)/D   G/D   A/D D          A7(v)  D/A              A7(v)
If im not blind why can't I see, that a circle can't fit where a square 

A/7(ii)
should be

Chorus (chords/tab)

G                           G    A    B    C2           
D  E/D D E/D 
There's a hole in my heart that can only be filled by you

          G                G    A    B   C2       D    E/D
And this hole in my heart can't be filled with the things I do
  

e|----------------------------------|
B|-------3------------3-------------|
G|-----0----0---0---0---------------|
D|--3---------3---2------2p0--------|
A|---------------------------3------|
E|----------------------------------|

e|-2-2--2/4---4-4-------------------|
B|-3-3--3/5---5-5-------------------|
G|-2-2--2/4---4-4-------------------|
D|-0-0--0-----0-0-------------------|
A|----------------------------------|
E|----------------------------------|

e|----------------------------------|
B|-------3------------3-------------|
G|-----0----0---0---0---------------|
D|--3---------3---2------2p0--------|
A|---------------------------3------|
E|----------------------------------|

Solo

e|-------17----17----------10--7/8--7/8--7/8----------|
B|-13/17----17----------10--------------------10--8---|
G|----------------------------------------------------|
D|----------------------------------------------------|
A|----------------------------------------------------|
E|----------------------------------------------------|

e|-----------------------17--15----------|
B|--8/10-----------------17--15----------|
G|---------------------------------------|
D|---------------------------------------|
A|---------------------------------------|
E|---------------------------------------|

e|----------------------------------|
B|-7/8--7/8--7/8--8-8--8/10---------|
G|----------------------------------|
D|----------------------------------|
A|----------------------------------|
E|----------------------------------|


| /  slide up
| \  slide down
| h  hammer-on
| p  pull-off
| ~  vibrato
| +  harmonic
| x  Mute note
============================================================================
Comments