Extreme - Hole Hearted Chords & Tabs

 

Hole Hearted Chords & Tabs

Extreme Chords & Tabs

Version: 1 Type: Tab 0 ratings
1 star 2 stars 3 stars 4 stars 5 stars
comments

Hole Hearted Tab

   
#----------------------------------PLEASE NOTE---------------------------------#
#This file is the author's own work and represents their interpretation of the #
#song. You may only use this file for private study, scholarship, or research. #
#------------------------------------------------------------------------------##

                                  HOLE HEARTED

				    Extreme
 Interlude
                            ~~
| H                E        S  S  S  S  E     E    E  E S S S S S S  E   E
|--------------------------------17----17---|--------10-7s8-7s8-7s8----------|
|--------------------------13s17----17------|-----10----------------10---8---|
|-------------------------------------------|--------------------------------|
|-------------------------------------------|--------------------------------|
|-------------------------------------------|--------------------------------|
|-------------------------------------------|--------------------------------|


| E    E    +Q       E        E  Q
|----------------------------17-15-----|
|-8s==10---(10)--------------17-15-----|
|--------------------------------------|
|--------------------------------------|
|--------------------------------------|
|--------------------------------------|


| S S S S S S S S S   S   S S S  E.
|----------------------------------------||
|-7s8---7s8---7s8-----8---8---8s10-------||
|----------------------------------------||
|----------------------------------------||
|----------------------------------------||
|----------------------------------------||


 Verse 2

|----------------------------------|
|----------------------------------|
|----------------------------------|
|----------------------------------|
|----------------------------------|
|----------------------------------|


| a E.    a S +E  a E   S a E.   a E   a E
|---------------------------------------------|
|---------------------------------------------|
|-6s7-----6s7-(7)-6s7-----6s7----6s7---6s7----|
|---------------------------------------------|
|---------------------------------------------|
|---------------------------------------------|


|                                              ~~
| a E   Q         Q          Q   E     E   S S E.     S S   S   S S S S S S
|------------------------------------|-----7---5-----------------------------|
|------------------------------------|-------9--------7s8---8---7---5-5s7-7s=|
|-6s7s==6------------------------7s==|=9-------------------------------------|
|------------------------------------|---------------------------------------|
|------------------------------------|---------------------------------------|
|------------------------------------|---------------------------------------|


| Q.            E  a  Q          Q        +E    Q   Q        S  S  S  S  E
|--------------------------------------|--------------------------17----17----|
|-5---------------14s17---------14-----|-(14)---------------15s17----17-------|
|-----------------14s17---------14-----|-(14)---------------------------------|
|--------------------------------------|--------------------------------------|
|--------------------------------------|--------------------------------------|
|--------------------------------------|--------------------------------------|


|                  ~~
| S  S  E    E     E  E        E S S E
|---10-12----9---------------------------|
|-----------------10-/5-------/5-3-------|
|----------------------------------7s9---|
|----------------------------------------|
|----------------------------------------|
|----------------------------------------|


|         ~~
| S S S S E.     S S   S   S S E E
|-9---7---5---------------------------||
|----------------7s8---8---7---5-7----||
|---9---------------------------------||
|-------------------------------------||
|-------------------------------------||
|-------------------------------------||

[ Tab from: http://www.guitartabs.cc/tabs/e/extreme/hole_hearted_tab.html ]
 Pre-Chorus
  
    Q.     Q       S S  S S  E       E.    S  E   E   +Q     E S S
|-/10-------------15---15---15---|---------------------------------|
|--------------------------------|-/15----10-----/7---(7)------7---|
|--------------------------------|---------------------------------|
|--------------------------------|---------------------------------|
|--------------------------------|---------------------------------|
|--------------------------------|---------------------------------|


  S S E   E S  S  E   S  S  +E    E     S  E  S E  E +Q.       E
|-------------------------------------|-7----/9---/5-(5)---------|
|-5s7s5----------14-----14-(14)-------|--------------------------|
|-----------9S14-----14---------------|--------------------------|
|-------------------------------------|--------------------------|
|-------------------------------------|--------------------------|
|-------------------------------------|--------------------------|


  W                  W                 W
|------------------|-----------------|----------------------|
|------------------|-----------------|----------------------|
|------------------|-----------------|----------------------|
|------------------|-----------------|----------------------|
|------------------|-----------------|----------------------|
|------------------|-----------------|----------------------|


  D      E/D      D             E/D                G     G  a  B Cadd9
  E. S E E +E E E S S   E S S E S S +E S S S S E   Q  Q  E  E  E E
  |  | | |  | | | | |   | | |   | |  | | | | | |   |  |  |  |  | |
  /  / / /  / / / / /   / / /   / /  / / / / / /   /  /  o  o  o /

  W                     W                          W
|---------------------|--------------------------|------------------|
|---------------------|--------------------------|------------------|
|---------------------|--------------------------|------------------|
|---------------------|--------------------------|------------------|
|---------------------|--------------------------|------------------|
|---------------------|--------------------------|------------------|



   W                      W                  E S S +S  S S S E S S S S E
|-----------------------|------------------|-----------------------------|
|-----------------------|------------------|-----3-(3)-----------3-------|
|-----------------------|------------------|---0-------0---0---0---------|
|-----------------------|------------------|-3-----------3---2-----2p0---|
|-----------------------|------------------|---------------------------3-|
|-----------------------|------------------|-----------------------------|



|                            
| W                          Q      E    S  S  S  S  S  S  E    S S
|--------------------------|------------------10----10----10--------|
|--------------------------|-------------8s10----10----10------10s8-|
|--------------------------|----------------------------------------|
|--------------------------|----------------------------------------|
|--------------------------|----------------------------------------|
|--------------------------|----------------------------------------|


| S  E.    +E  E      H
|------------------------------|
|-8s10----(10)-----------------|
|------------------------------|
|------------------------------|
|------------------------------|
|------------------------------|


|                   |-------3-------|
| H               a Q   a Q       a Q
|---------------------------------------|
|---------------------------------------|
|-----------------6s5---6s5-------6s5---|
|---------------------------------------|
|---------------------------------------|
|---------------------------------------|


| E Q.              H          W                              W
|----------------------------|-----------------------------|-------*|
|----------------------------|-----------------------------|-------*|
|-5s7------------------------|-----------------------------|-------*|
|----------------------------|-----------------------------|-------*|
|----------------------------|-----------------------------|-------*|
|----------------------------|-----------------------------|-------*|
Comments