Extol - And I Watch Chords & Tabs

 

And I Watch Chords & Tabs

Extol Chords & Tabs

Version: 1 Type: Tab 0 ratings
1 star 2 stars 3 stars 4 stars 5 stars
comments

And I Watch Tab

   
-------------------------------------------------------------------------------
                              And I Watch - Extol
-------------------------------------------------------------------------------
Tabbed by: Jon
Email: StupidKracker32589@yahoo.com
[ Tab from: http://www.guitartabs.cc/tabs/e/extol/and_i_watch_tab.html ]
Tuning: Low to High E,A,D,G,B,E
Hey everybody I dont know if this is 100% right so if it isn't just send me an
E-mail and tell me what I did wrong or just fix it. anyways here's the solo
e|---------------------------------------------------------------------------|
B|---------------------------------------------------------------------------|
G|-6h7p6--------------6h7p6------------6h7p6-------------7-5-----7-5---------|
D|-------7-7/9--------------7/9-7-6-7--------7-7/9-----------5-7-------------|
A|-------------9-7---------------------------------9-7-----------------------|
E|---------------------------------------------------------------------------|

e|---------------------------------------------------------------------------|
B|---------------------------------------------------------------------------|
G|-6h7p6--------------6h7p6------------6h7p6-------------7-5-----7-6---------|
D|-------7-7/9--------------7/9-7-6-7--------7-7/9-----------5-7-------------|
A|-------------9-7---------------------------------9-7-----------------------|
E|---------------------------------------------------------------------------|

ok thats it i hope it helped you out
Comments