Exterio - Whippet Chords & Tabs

 

Whippet Chords & Tabs

Exterio Chords & Tabs

Version: 1 Type: Tab 0 ratings
1 star 2 stars 3 stars 4 stars 5 stars
comments

Whippet Tab

----------------------------------------------------------------------------
                                        eXterio
                                        Whippet
----------------------------------------------------------------------------

Standard Tuning

Intro 
e|------------------------------------------------------------------|
B|------------------------------------------------------------------|
G|------------------------------------------------------------------|
D|--2-2--1--------1--2--2-4-2---2-4-4-2-1---2-4--6--6-4--6----------|
A|----------4-2-4--------------------------2------------------------|
E|------------------------------------------------------------------|
   |___________________________________________________|
                      Palm Mute

Before the verse 1
e|------------------------------------------------------------------|
B|------------------------------------------------------------------|
G|---------------------------------------------------------4--------|
D|--2-2---1--------1--2--2-4-2---2-4-4-2-1---2-4--6--6-4-6----6-4---|  
A|----------4-2-4--------------------------2------------------------|
E|------------------------------------------------------------------|


e|------------------------------------------------------------------|
B|------------------------------------------------------------------|
G|---------------------------------------------------------4-6-8-9--|
D|--2-2---1--------1--2--2-4-2---2-4-4-2-1---2-4--6--6-4-6----------|  
A|----------4-2-4--------------------------2------------------------|
E|------------------------------------------------------------------|

Chorus
e|-----------------------------------------|
B|-----------------------------------------|
G|-----------------------------------------|
D|----6---9---9----6---6-------------------|  
A|----4---7---9----6---6-------------------|
E|----4---7---7----4---4-------------------|

Repeat before the verse 1

Repeat the chorus
[ Tab from: http://www.guitartabs.cc/tabs/e/exterio/whippet_tab.html ]
Bridge
e|-------------------------------------------------------------------------|
B|-------------------------------------------------------------------------|
G|-------------------------------------------------9-9-9-11-9-8----------9-|
D|-2-2-2-4-2-1-------2-1-------------------------1-------------11-11-11----|
A|-------------4-4-4-----4-2-2-2-4-2-1-------2-4---------------------------|
E|------------------------------------4-4-4--------------------------------|

e|------------------------------------|
B|------------------------------------|
G|-8------------------------------8-9-|
D|---11-9-9-9-11-9-8-6-6-6-9-11-------|  
A|------------------------------------|
E|------------------------------------|

Reapeat the chorus

Outro
e|------------------------------------------------------------------|
B|------------------------------------------------------------------|
G|---------------------------------------------------------4--------|
D|--2-2---1--------1--2--2-4-2---2-4-4-2-1---2-4--6--6-4-6----6-4---|  
A|----------4-2-4--------------------------2------------------------|
E|------------------------------------------------------------------|

e|------------------------------------------------------------------|
B|------------------------------------------------------------------|
G|----------------------------------------------------------4-6-8---|
D|--2-2---1---------1--2--2-4-2---2-4-4-2-1---2-4--6--6-4-6---------|  
A|----------4-2-4---------------------------2-----------------------|
E|------------------------------------------------------------------|

Solo
e|----------------------------------------------------------------------|
B|-----------------------------------------------------------12---------|
G|-9-9-8---------8-9-9-11-9--9-11-11-9-8----9-11-13--13-11-13---13-11---| x2
D|--------11-9-11------------------------11-----------------------------|  
A|----------------------------------------------------------------------|
E|----------------------------------------------------------------------|
Comments