Explosions In The Sky - Moon Is Down Chords & Tabs

 

Moon Is Down Chords & Tabs

Explosions In The Sky Chords & Tabs

Version: 1 Type: Tab 0 ratings
1 star 2 stars 3 stars 4 stars 5 stars
comments

Moon Is Down Tab

Title: The Moon Is Down
Artist: Explosions In The Sky
Album: Those Who Tell The Truth Shall Die, Those Who Tell The Truth Shall Live Forever

Email: feekleceo@yahoo.com
       nickdescending@yahoo.com     

Tabbed By Nick Carrasco

Explosions in the sky is a great band every song is amazing. This is one of my favorites
so i decided to tab it. Ive added the times to try to make it easier. This is my first
tab and i figured it out by ear so bare with me. Ending coming soon!

*All Guitars In Standard Tuning*

Listen to the song to figure out the rhythm.


((KEY))
T = Triplets
h = Hammer On
S = Slide



(0:00)-->(1:55) *1st Guitar*

e----------------------------------------------------------------|
B---------------(x3)----------------------PLAYS AT THE END-------|
G-7-5-12-10-9-5-7-4-10-9-14-9-14-10-12-9----7-5-9-5-7-5----------|
D----------------------------------------------------------------|
A----------------------------------------------------------------|
E----------------------------------------------------------------|

(0:19)-->(2:05) *2nd Guitar*

e-------------<(TRIPLETS)>----------------S--------(x4)----------|
B-(15-15-15-15-15-17-17-15-17-15-15-15)-15/17-(13-13-12-12h13)---|
G----------------------------------------------------------------|
D----------------------------------------------------------------|
A----------------------------------------------------------------|
E----------------------------------------------------------------|

(2:22) - (2:28) *2nd Guitar*

e----15-12----------15-12----------------------------------------|
B-17-------------17----------------------------------------------|
G----------------------------------------------------------------|
D----------------------------------------------------------------|
A----------------------------------------------------------------|
E----------------------------------------------------------------|


  at            *1st Guitar*
(1:07)(1:55)(2:10)

e----------------------------------------------------------------|
B----------------------------------------------------------------|
G----B-----------------------------------------------------------|
D---14-----------------------------------------------------------|
A----------------------------------------------------------------|
E----------------------------------------------------------------|



---SECOND PART OF SONG---

(2:34)-(3:11) (       *1st Guitar*

e------------------------------3---3---1---1---------------------|
B----------------------------5---5---3---3-----------------------|
G----9-9-9-9-9----9-9-9-9-9--------------------------------------|
D--9------------9------------------------------------------------|
A----------------------------------------------------------------|
E----------------------------------------------------------------|

[ Tab from: http://www.guitartabs.cc/tabs/e/explosions_in_the_sky/moon_is_down_tab.html ]
e-----------------------------7-10-7-8-5-7-----------------------|
B------------------------------------------10--------------------|
G----9-9-9-9-9----9-9-9-9-9--------------------------------------|
D--9------------9------------------------------------------------|
A----------------------------------------------------------------|
E----------------------------------------------------------------|

e----------------------------------------------------------------|
B--------------------------------8---8---6---5-------------------|
G----9-9-9-9-9----9-9-9-9-9----9---9---7---7---------------------|
D--9------------9------------------------------------------------|
A----------------------------------------------------------------|
E----------------------------------------------------------------|


(2:43)           *2nd Guitar*

e----------------------------------------------------------------|
B--8-5-5---------------------------------------------------------|
G----------------------------------------------------------------|
D----------------------------------------------------------------|
A----------------------------------------------------------------|
E----------------------------------------------------------------|


(3:11)-(4:51)     *1st Guitar*

e----------------------------------------------------------------|
B----------------------------------------------------------------|
G--9---9-7---7---------------------12-12-10-10-------------------|
D----7-----5-----------------------------------14----------------|
A----------------------------------------------------------------|
E----------------------------------------------------------------|



(3:19)-(4:51)Fill*2nd Guitar*

e--19----17-----19----17--------20-19-20-19-17-------------------|
B-(x15)-(x15)--(x15)-(x15)---------------------------------------|
G----------------------------------------------------------------|
D----------------------------------------------------------------|
A----------------------------------------------------------------|
E----------------------------------------------------------------|



(3:20)-(4:51)Fill *3rd Guitar* 

e----------------------------------------------------------------|
B--12---10-12----------------------------------------------------|
G-----9----------------------------------------------------------|
D----------------------------------------------------------------|
A----------------------------------------------------------------|
E----------------------------------------------------------------|


NEXT PART


(5:45)-(6:56)       *1st Guitar*

e----------------------------------------------------------------|
B----------------------------------------------------------------|
G--12/9-9---12/9-9---12/9-9-7-7-9-9---12/9-9-7-7-5-5-4/5---------|
D----------------------------------------------------------------|
A----------------------------------------------------------------|
E----------------------------------------------------------------|
Comments