Explosions In The Sky - Lonely Train Chords & Tabs

 

Lonely Train Chords & Tabs

Explosions In The Sky Chords & Tabs

Version: 1 Type: Tab 0 ratings
1 star 2 stars 3 stars 4 stars 5 stars
comments

Lonely Train Tab

Artist: Explosions in the Sky
Album: Friday Night Lights Soundtrack
Song: Lonely Train


Tabbed by: Nick Carrasco
email - nickdescending@yahoo.com
        feekleceo@yahoo.com



Another Great song by EiTS. Enjoy!


(0:00)-(6:15)

Intro/First Guitar
e----------------------------------------------------------------|
B--5---6---5---6-----5-------5---3-------------------------------|
G------------------------5---------------------------------------|
D----------------------------------------------------------------|
A----------------------------------------------------------------|
E----------------------------------------------------------------|


(0:46)-(2:43)

Second Guitar
e----------------------------------------------------------------|
B--10-----14-----14-----15----10-----12--------------------------|
G--14-----14-----14-----------14-----14-----14-------------------|
D----------------------------------------------------------------|
A----------------------------------------------------------------|
E----------------------------------------------------------------|


(2:21)-(6:15) - Fades in/Fades out
[ Tab from: http://www.guitartabs.cc/tabs/e/explosions_in_the_sky/lonely_train_tab.html ]
3rd Guitar
e----------------------------------------------------------------|
B----------------------------------------------------------------|
G----------------------------------------------------------------|
D--pm-------(repeat for the rest of the song)--------------------|
A--5-------------------------------------------------------------|
E----------------------------------------------------------------|


(2:52)-(6:15)

2rd Guitar
e----------------------------------------------------------------|
B----------------------------------------------------------------|
G--10-10-10-10--9-9-9-9--7-7-7-7---------------------------------|
D----------------------------------------------------------------|
A----------------------------------------------------------------|
E----------------------------------------------------------------|

e----------------------------------------------------------------|
B----------------------------------------------------------------|
G--10-10-10-10--12-12-12-12--9-9-9-9--7-7-7-7--------------------|
D----------------------------------------------------------------|
A----------------------------------------------------------------|
E----------------------------------------------------------------|
Comments