Explosions In The Sky - Greet Death Chords & Tabs

 

Greet Death Chords & Tabs

Explosions In The Sky Chords & Tabs

Version: 1 Type: Tab 0 ratings
1 star 2 stars 3 stars 4 stars 5 stars
comments

Greet Death Tab

   
Title: Greet Death
Artist: Explosions In The Sky
Album: Those Who Tell The Truth Shall Die, Those Who Tell The Truth Shall Live Forever

Email: captain_bengalaas@hotmail.com

< ----------------------------- >
< http://bengalaas.dmusic.com/  >
< ----------------------------- >

*Final Update Added 02/02/05*

This is my second Explosions In The Sky tab, entitled, "Greet Death" (not 
to be confused with "Help Us Stay Alive" - there is no such song). This is
a relatively easy song to learn and play. Hope you like it... feel free to
email me tab requests, death threats, money, etc.

-----------------------
Munaf - Drop-D Tuning  |
Mark - Standard Tuning |
-----------------------    

Munaf (Riff 1 played with overdrive):

e|-----------------------------------------------------------------|
B|-----------------------------------------------------------------|
G|-----------------------------------------------------------------|
D|-----------------------------------------------------------------|
A|-2-2-2-2-2-2-2-2-6-6-6-6-6-6-6-6-2-2-2-2-2-2-2-2-6-6-6-6-6-6-6-6-|
D|-2-2-2-2-2-2-2-2-6-6-6-6-6-6-6-6-2-2-2-2-2-2-2-2-6-6-6-6-6-6-6-6-|
                  <######PM#######>               <######PM#######>


Munaf (Riff 2 played with overdrive):

e|-----------------------------------------------------------------|
B|-----------------------------------------------------------------|
G|-----------------------------------------------------------------|
D|-----------------------------------------------------------------|
A|-2-2-2-2-4-4-4-4-6-6-6-6-9-9-9-9-2-2-2-2-4-4-4-4-0-0-0-0-1-1-1-1-|
D|-2-2-2-2-4-4-4-4-6-6-6-6-9-9-9-9-2-2-2-2-4-4-4-4-0-0-0-0-1-1-1-1-|
  

e|-----------------------------------------------------------------|
B|-----------------------------------------------------------------|
G|-----------------------------------------------------------------|
D|-----------------------------------------------------------------|
A|-6-6-6-6-4-4-4-4-6-6-6-6-9-9-9-9-2-2-2-2-4-4-4-4-0-0-0-0-1-1-1-1-|
D|-6-6-6-6-4-4-4-4-6-6-6-6-9-9-9-9-2-2-2-2-4-4-4-4-0-0-0-0-1-1-1-1-|
  

Mark (Riff 3 played over Riff 2 with overdrive):

e|-7-----7-----7----7-----7-----7-----7-----7-----7-----7----------|
B|---9-----9-----9----9-----9-----9-----9-----9-----9-----9--------|
G|-----8-----8-----8----8-----8-----8-----8-----8-----8-----8------|
D|-----------------------------------------------------------------|
A|-----------------------------------------------------------------|
E|-----------------------------------------------------------------|


Munaf (Riff 1 played with overdrive):

e|-----------------------------------------------------------------|
B|-----------------------------------------------------------------|
G|-----------------------------------------------------------------|
D|-----------------------------------------------------------------|
A|-2-2-2-2-2-2-2-2-6-6-6-6-6-6-6-6-2-2-2-2-2-2-2-2-6-6-6-6-6-6-6-6-|
D|-2-2-2-2-2-2-2-2-6-6-6-6-6-6-6-6-2-2-2-2-2-2-2-2-6-6-6-6-6-6-6-6-|
                  <######PM#######>               <######PM#######>


Mark (Riff 4 played over Riff 1 with overdrive):
[ Tab from: http://www.guitartabs.cc/tabs/e/explosions_in_the_sky/greet_death_tab.html ]
e|------12-10----12-10----12-10----12-10----12-10----12-10---------|
B|-----------------------------------------------------------------|
G|-8/13-------13-------13-------13-------13-------13---------------|
D|-----------------------------------------------------------------|
A|-----------------------------------------------------------------|
E|-----------------------------------------------------------------|

e|------14-------14-------14-------14-------14---------------------|
B|---------14-------14-------14-------14-------14------------------|
G|-8/11-------11-------11-------11-------11-------11---------------|
D|-----------------------------------------------------------------|
A|-----------------------------------------------------------------|
E|-----------------------------------------------------------------|

*Repeat Riffs 2+3*

     then

*Repeat Riffs 1+4*


*After that, feedback, oscillation, warp, etc... fade into riff 5*


Mark (Riff 5) *with slow gear/attack effect*:

e|----------7---9---10---14---2---3-----------7---9---10---14---14~|
B|-2---3-----------------------------2----3------------------------|
G|-----------------------------------------------------------------|
D|-----------------------------------------------------------------|
A|-----------------------------------------------------------------|
E|-----------------------------------------------------------------|

e|-15---9----10---7---5---2----------------------------------------|
B|-----------------------------------2----3------------------------|
G|---------------------------------------------4-------------------|
D|--------------------------------------------------7--------------|
A|------------------------------------------------------9----------|
E|-----------------------------------------------------------------|

*Play this riff till end... First time is clean (comes in with drums)*

e|-----------------------------------------------------------------|
B|-----------------------------------------------------------------|
G|-7---6---12--11--9---5--6--7-------------------------------------|
D|-9---7---14--12--11--9--7--9-------------------------------------|
A|-----------------------------------------------------------------|
E|-----------------------------------------------------------------|


Munaf (Riff 6) *played clean. start when Mark plays 14~ (4:21)*

e|-----------------------------------------------------------------|
B|-----------------------------------------------------------------|
G|-----------------------------------------------------------------|
D|-9-12-14-12-11-12-11\5-5-4-4/12-12-12-14-14/16-16-16-16\12-12----|
A|-----------------------------------------------------------------|
D|-----------------------------------------------------------------|

e|-----------------------------------------------------------------|
B|-----------------------------------------------------------------|
G|-----------------------------------------------------------------|
D|-9-12-14-12-11-11-12-11/5-5-5-4-4/12-12-12-14-14/16-16-16~-------|
A|-----------------------------------------------------------------|
D|-----------------------------------------------------------------|

Munaf (Riff 7) *with overdive, repeat until end*:

e|-----------------------------------------------------------------|
B|-----------------------------------------------------------------|
G|-12---11---17--16--14----12--11--12------------------------------|
D|-----------------------------------------------------------------|
A|-----------------------------------------------------------------|
D|-----------------------------------------------------------------|

*End in cascading waves of feedback and noise*

^END^

Key:

~   Vibrato
PM  Palm Mute
/   Slide Up
\   Slide Down
Comments