Explosions In The Sky - First Breath After Coma Chords & Tabs

 

First Breath After Coma Chords & Tabs

Explosions In The Sky Chords & Tabs

Version: 2 Type: Tab 0 ratings
1 star 2 stars 3 stars 4 stars 5 stars
comments

First Breath After Coma Tab

   
-----------------------------------------------------------------------
	      First Breath After Coma - Explosions In The Sky
-----------------------------------------------------------------------
Tabbed by:zack
Email:georgia_dawg_55@hotmail.com

Tuning:Standard



E|-17-17-17-17-17-17-17-17-17-17-17-17-17-17-17-17-17-17-17-17----||
B|----------------------------------------------------------------||
G|----------------------------------------------------------------||
D|----------------------------------------------------------------||
A|----------------------------------------------------------------||
E|----------------------------------------------------------------||

E|----------------------------------------------------------------||
B|---5-5-5-5-5-5-5---4-4-4-4-4-4-4---7-7-7-7-7-7-7--9-9-9-9-9-9-9-|| 
G|-6---------------4----------------------------------------------|| 
D|----------------------------------6-----------------------------|| 
A|-------------------------------------------------7--------------|| 
E|----------------------------------------------------------------|| 
                                                           
E|----------------------------------------------------------------|| 
B|--5-5-5-5-5-5-5-5-4-4-4-4-4-4-4-4-9-5-5-5-5-5-9-5-9-5-5-5-5-5-5-|| 
G|----------------------------------------------------------------||
D|----------------------------------------------------------------|| 
A|----------------------------------------------------------------|| 
E|----------------------------------------------------------------||

E|----------------------------------------------------------------||
B|-----5-5------7-7-----4-4-----7-7-------------------------------||
G|-6-------6--------4-------4-------------------------------------||
D|---7-------7--------6-------6-----------------------------------||
A|----------------------------------------------------------------||
E|----------------------------------------------------------------||

E|----------------------------------------------------------------||
B|-----5-5-----7-7-------4----------------------------------------||
G|-6-------6-------4---4---4---4----------------------------------||
D|---7-------7-------6-------6---6(LAST TIME LEAVE THIS 6 OFF)----||
A|----------------------------------------------------------------||
E|----------------------------------------------------------------||

E|----------------------------------------------------------------||
B|10-9-10-9-10-9-9-12-12-7-12-7-12-7-7-10-10-5-5-4-4-5-5-7-9-4-4-5||
G|----------------------------------------------------------------||
D|----------------------------------------------------------------||
A|----------------------------------------------------------------||
E|----------------------------------------------------------------||

E|-------------------------777777777777777/12121212121212121211212||
B|-----------------9999999-----------------TWELVES----------------||
G|9999999999999999------------------------------------------------||
D|----------------------------------------------------------------||
A|----------------------------------------------------------------||
E|----------------------------------------------------------------||
[ Tab from: http://www.guitartabs.cc/tabs/e/explosions_in_the_sky/first_breath_after_coma_tab_ver_2.html ]
E|11-12-11-\-77777777777777---------------------------------------||
B|----------------------------------------------------------------||
G|----------------------------------------------------------------||
D|--------------------------------------6666666-9999999-----------||
A|--------------------------77777777777---------------------------||
E|----------------------------------------------------------------||

E|----------------------------------------------------------------||
B|----------------------------------------------------------------||
G|----------------------------------------------------------------||
D|-------------11-11-11-11-11-11-999999999------------------------||
A|-77777777777----------------------------------------------------||
E|----------------------------------------------------------------||

E|----------------------------------------------------------------||
B|-10-9-12-10---10-9-10-12--7-9-10-7-\-5--12-\-10--10-9-10-10-----||
G|----------------------------------------------------------------||
D|----------------------------------------------------------------||
A|----------------------------------------------------------------||
E|----------------------------------------------------------------||

E|----------------------------------------------------------------||
B|----5---10----12---17-------15-14-15-14-15-14-15-14-15-14-------||
G|------------------------------------------------------------=---||
D|--2-----7---12--------------------------------------------------||
A|-----------------12------------------------------------------=--||
E|----------------------------------------------------------------||

E|----------------------------------------------------------------||
B|-10-9-12-10---10-9-10-12--7-9-10-7-\-5--12-\-10--10-9-10-10-----||
G|----------------------------------------------------------------||
D|----------------------------------------------------------------||
A|----------------------------------------------------------------||
E|----------------------------------------------------------------||

E|----------------------------------------------------------------||
B|----5----10---12---17-------15-14-15-14-15-14-15-14-15-14-------||
G|----------------------------------------------------------------||
D|--2----7---12---------------------------------------------------||
A|-----------------12---------------------------------------------||
E|----------------------------------------------------------------||

E|----------------------------------------------------------------||
B|-15-14-15-14-15-14-15-14-15-14--12-10-12-10-15-14-15-14-15-14-15||
G|----------------------------------------------------------------||
D|----------------------------------------------------------------||
A|----------------------------------------------------------------||
E|----------------------------------------------------------------||

E|----------------------------------------------------------------||
B|----------------------------------------------------------------||
G|----------------------------------------------------------------||
D|-7-7--7---------------------------------------------------------||
A|-7-7--7----REPEAT ALOT------------------------------------------||
E|-5-5--5---------------------------------------------------------||

THATS ALL I CAN FIGURE OUT

| /  slide up
| \  slide down
| h  hammer-on
| p  pull-off
| ~  vibrato
| +  harmonic
| x  Mute note
=======================================================================
Comments