Explosions In The Sky - First Breath After Coma Chords & Tabs

 

First Breath After Coma Chords & Tabs

Explosions In The Sky Chords & Tabs

Version: 1 Type: Tab 0 ratings
1 star 2 stars 3 stars 4 stars 5 stars
comments

First Breath After Coma Tab

-------------------------------------------------------------------------------
	       FIRST BREATH AFTER COMA - Explosions in the Sky
-------------------------------------------------------------------------------
Tabbed by: oneluckybstrd
Email: oneluckybstrd@hotmail.com

This is my first tab, blah blah blah; there are two leads in this song, and this tabs
out only one of 'em, and only through the first four and a half minutes of the song or
so.  I'll update more as I have time, but for now, this'll do.  Comments are more than
appreciated, hell, tear this thing apart if its warranted, but for a first timer, this
isn't too bad.  Awesome, awesome band worth checking out for anybody with an ear for melody.

By the way, most of these notes are repeated over and over as you're playing, if you
listen, its extremely easy to figure out.  

Tuning:

e|----19--21--19----------19----21-19----------19----21--19------------------|
B|--22--21-------22h21h22----21-------22h21h22----21--------22h21h22---------|
G|---------------------------------------------------------------------------|
D|---------------------------------------------------------------------------|
A|---------------------------------------------------------------------------|
E|---------------------------------------------------------------------------|

e|---------------------------------------------------------------------------|
B|---------------------------------------------------------------------------|
G|---------------------------------------------------------------------------|
D|---------------------------------------------------------------------------|
A|--19-18----19------------19-18-----19--------------------------------------|
E|--------19----17-16-17-19------19------17-16-17-19-------------------------|

e|---------------------------------------------------------------------------|
B|---------------------------------------------------------------------------|
G|----------------------16-16----16---16----------16---16--16---16-------16--|
D|-19-18-19-18-19-18-18-------16----16---16-16-19----18--18---18-------------|
A|-----------------------------------------------------------------18-19-----|
E|---------------------------------------------------------------------------|
[ Tab from: http://www.guitartabs.cc/tabs/e/explosions_in_the_sky/first_breath_after_coma_tab.html ]
e|---------------------------------------------------------------------------|
B|---------------------------------------------------------------------------|
G|----------------------16-16----16---16----------16---16--16---16-------16--|
D|-19-18-19-18-19-18-18-------16----16---16-16-19----18--18---18-------------|
A|-----------------------------------------------------------------18-19-----|
E|---------------------------------------------------------------------------|

e|---------------------------------------------------------------------------|
B|---------------------------------------------------------------------------|
G|----------------------16-16----16---16----------16---16--16---16-------16--|
D|-19-18-19-18-19-18-18-------16----16---16-16-19----18--18---18-------------|
A|-----------------------------------------------------------------18-19-----|
E|---------------------------------------------------------------------------|

e|---------------------------------------------------------------------------|
B|-------------------------------------------------------------19------------|
G|-------------------------------------------20-21-18-21-20-------21---------|
D|--19-18-19-18-19-18-19-18----21-19-18-19-21--------------21----------------|
A|---------------------------------------------------------------------------|
E|---------------------------------------------------------------------------|

e|----19-17-16----19-17-16----19-17-16----19-17-16---------------------------|
B|-21----------16----------------------16------------------------------------|
G|-------------------------18------------------------------------------------|
D|---------------------------------------------------21-19-18-19-21----------|
A|---------------------------------------------------------------------------|
E|---------------------------------------------------------------------------|

e|--------------------------19-17-16---19-17-16--19-17-16--19-17-16----------|
B|-----------------19-----21---------16------------------16------------------|
G|-20-21-18-21-20-----21-----------------------18----------------------------|
D|---------------21----------------------------------------------------------|
A|---------------------------------------------------------------------------|
E|---------------------------------------------------------------------------|

e|---17-16-17-16-17-16-------------------------------------------------------|
B|---------------------------------------------------------------------------|
G|---------------------------------------------------------------------------|
D|---------------------------------------------------------------------------|
A|---------------------------------------------------------------------------|
E|---------------------------------------------------------------------------|
Comments