Exploited - Sick Bastard Chords & Tabs

 

Sick Bastard Chords & Tabs

Exploited Chords & Tabs

Version: 1 Type: Tab 0 ratings
1 star 2 stars 3 stars 4 stars 5 stars
comments

Sick Bastard Tab

THE EXPLOITED - Sick Bastard (1990-The Massacre)
tabbed by DeV!8eR


intro: (2times)
e|------------------------------------------------------------------------|
B|------------------------------------------------------------------------|
G|-9--9-9-10-9-9-10-9-9-10-9-9-12-10--10-10-12-10-10-12-10-10-12-10-10-12-|
D|-9--9-9-10-9-9-10-9-9-10-9-9-12-10--10-10-12-10-10-12-10-10-12-10-10-12-|
A|-7--7-7--8-7-7--8-7-7--8-7-7-10--8---8--8-10--8--8-10--8--8-10--8--8-10-|
E|------------------------------------------------------------------------|

e|------------------------------------------------------------------|
B|------------------------------------------------------------------|
G|-9--9-9-10-9-9-10-9-9-10-9-9-12-10--10-10-12-10-10-12-10-10-14-14-|
D|-9--9-9-10-9-9-10-9-9-10-9-9-12-10--10-10-12-10-10-12-10-10-14-14-|
A|-7--7-7--8-7-7--8-7-7--8-7-7-10--8---8--8-10--8--8-10--8--8-12-12-|
E|------------------------------------------------------------------|


verse1: (4times)
e|--------------------------|
B|--------------------------|
G|-9----10----\7--/10--9----|
D|-9----10----\7--/10--9----|
A|-7-----8----\5--/-8--7----|
E|--------------------------|

verse2: (2times)
e|------------------------------------|
B|------------------------------------|
G|-9--9-9-10-7--9/10-9/10-9--9-9-10-7-|
D|-9--9-9-10-7--9/10-9/10-9--9-9-10-7-|
A|-7--7-7--8-5--7/-8-7/-8-7--7-7--8-5-|
E|------------------------------------|
[ Tab from: http://www.guitartabs.cc/tabs/e/exploited/sick_bastard_tab.html ]
verse3:
e|------------------------------------------------------------------------|
B|------------------------------------------------------------------------|
G|-9--9-9-10-9-9-10-9-9-10-9-9-12-10--10-10-12-10-10-12-10-10-12-10-10-12-|
D|-9--9-9-10-9-9-10-9-9-10-9-9-12-10--10-10-12-10-10-12-10-10-12-10-10-12-|
A|-7--7-7--8-7-7--8-7-7--8-7-7-10--8---8--8-10--8--8-10--8--8-10--8--8-10-|
E|------------------------------------------------------------------------|

e|------------------------------------------------------------------|
B|------------------------------------------------------------------|
G|-9--9-9-10-9-9-10-9-9-10-9-9-12-10--10-10-12-10-10-12-10-10-14-14-|
D|-9--9-9-10-9-9-10-9-9-10-9-9-12-10--10-10-12-10-10-12-10-10-14-14-|
A|-7--7-7--8-7-7--8-7-7--8-7-7-10--8---8--8-10--8--8-10--8--8-12-12-|
E|------------------------------------------------------------------|

then,

verse1: 4times
verse2: 2times
verse1: 8times
verse2: 2times
verse3: 1times
verse2: 6times
verse1: 4times


Sick Bastard:

The girl was screaming
Go leave me alone
She was only 5 years old
She had done no wrong
Her mother had told her don´t talk to men
She´d ignored her advice
Never seen again
Sick bastard
Sick bastard
80 year old woman
Lying in her bed
Someone crept into her room
Left her for dead
He slashed her face
He broke her arm
Now in intensive care
Lying nearly dead
Sick bastard
Sick bastard
Why does he do it
Is he insane
Just what´s going on
Inside his tiny brain
Is he sick! Does he know what he´s done
One day they´ll catch him
Then we will see him burn
Sick bastard
Sick bastard
80 year old woman
Lying in her bed
Somebody broke into her room
Left her for dead
He cut her face, broke her arm
Now in intensive care
In a hospital bed
Comments