Exploited - Porno Slut Chords & Tabs

 

Porno Slut Chords & Tabs

Exploited Chords & Tabs

Version: 1 Type: Tab 0 ratings
1 star 2 stars 3 stars 4 stars 5 stars
comments

Porno Slut Tab

   
THE EXPLOITED - Porno Slut (1990-The Massacre)
tabbed by DeV!8eR


very simple song, powerchords only (didn't tab solo)

intro:
e|-----------------------------------------|
B|-----------------------------------------|
G|-9--9-10-7--9--9-10-5--9--9-10-7-6-5-4-2-|
D|-9--9-10-7--9--9-10-5--9--9-10-7-6-5-4-2-|
A|-7--7-8--5--7--7-8--3--7--7-8--5-4-3-2-0-|
E|-----------------------------------------| x2


e|-----------------------------------|
B|-----------------------------------|
G|-999999999999-10-7-99999999-/5-/10-|
D|-999999999999-10-7-99999999-/5-/10-|
A|-777777777777-8--5-77777777-/5-/8--|
E|-----------------------------------| x2

e|----------------------------------|
B|----------------------------------|
G|-999999999999-10-7-99999999-/5----|
D|-999999999999-10-7-99999999-/5-/7-|
A|-777777777777-8--5-77777777-/5-/7-|
E|-------------------------------/5-| x2

e|---------------------------------------|
B|---------------------------------------|
G|------10-7------10-5------10-7-6-5-4-2-|
D|-7777-10-7-7777-10-5-7777-10-7-6-5-4-2-|
A|-7777-8--5-7777-8--3-7777-8--5-4-3-2-0-|
E|-5555------5555------5555--------------| x2

e|-------------------------------|
B|-------------------------------|
G|-99-999-999-10-7-99-999-/5-/10-|
D|-99-999-999-10-7-99-999-/5-/10-|
A|-77-777-777-8--5-77-777-/5-/8--|
E|-------------------------------| x2

e|-----------------------------------|
B|-----------------------------------|
G|-999999999999-10-7-99999999-/5-/10-|
D|-999999999999-10-7-99999999-/5-/10-|
A|-777777777777-8--5-77777777-/5-/8--|
E|-----------------------------------| x2

e|----------------------------------|
B|----------------------------------|
G|-999999999999-10-7-99999999-/5----|
D|-999999999999-10-7-99999999-/5-/7-|
A|-777777777777-8--5-77777777-/5-/7-|
E|-------------------------------/5-| x2

e|---------------------------------------|
B|---------------------------------------|
G|------10-7------10-5------10-7-6-5-4-2-|
D|-7777-10-7-7777-10-5-7777-10-7-6-5-4-2-|
A|-7777-8--5-7777-8--3-7777-8--5-4-3-2-0-|
E|-5555------5555------5555--------------| x2
[ Tab from: http://www.guitartabs.cc/tabs/e/exploited/porno_slut_tab.html ]
e|-------------------------------|
B|-------------------------------|
G|-99-999-999-10-7-99-999-/5-/10-|
D|-99-999-999-10-7-99-999-/5-/10-|
A|-77-777-777-8--5-77-777-/5-/8--|
E|-------------------------------| x2

(1st solo starts)
e|----------------------------------|
B|----------------------------------|
G|-999999999999-10-7-99999999-/5----|
D|-999999999999-10-7-99999999-/5-/7-|
A|-777777777777-8--5-77777777-/5-/7-|
E|-------------------------------/5-| x4
(1st solo stops)

e|----------------------------------|
B|----------------------------------|
G|-999999999999-10-7-99999999-/5----|
D|-999999999999-10-7-99999999-/5-/7-|
A|-777777777777-8--5-77777777-/5-/7-|
E|-------------------------------/5-| x2

e|---------------------------------------|
B|---------------------------------------|
G|------10-7------10-5------10-7-6-5-4-2-|
D|-7777-10-7-7777-10-5-7777-10-7-6-5-4-2-|
A|-7777-8--5-7777-8--3-7777-8--5-4-3-2-0-|
E|-5555------5555------5555--------------| x2

e|-------------------------------|
B|-------------------------------|
G|-99-999-999-10-7-99-999-/5-/10-|
D|-99-999-999-10-7-99-999-/5-/10-|
A|-77-777-777-8--5-77-777-/5-/8--|
E|-------------------------------| x2

(2nd solo starts)
e|----------------------------------|
B|----------------------------------|
G|-999999999999-10-7-99999999-/5----|
D|-999999999999-10-7-99999999-/5-/7-|
A|-777777777777-8--5-77777777-/5-/7-|
E|-------------------------------/5-| x5
(2nd solo stops)

e|-----------------------------------|
B|-----------------------------------|
G|-999999999999-10-7-99999999-/5-/10-|
D|-999999999999-10-7-99999999-/5-/10-|
A|-777777777777-8--5-77777777-/5-/8--|
E|-----------------------------------|

e|----------------------------------|
B|----------------------------------|
G|-999999999999-10-7-99999999-/5----|
D|-999999999999-10-7-99999999-/5-/7-|
A|-777777777777-8--5-77777777-/5-/7-|
E|-------------------------------/5-| x3

e|---------------------------------------|
B|---------------------------------------|
G|------10-7------10-5------10-7-6-5-4-2-|
D|-7777-10-7-7777-10-5-7777-10-7-6-5-4-2-|
A|-7777-8--5-7777-8--3-7777-8--5-4-3-2-0-|
E|-5555------5555------5555--------------| x2
Comments