Exploited - Massacre Chords & Tabs

 

Massacre Chords & Tabs

Exploited Chords & Tabs

Version: 1 Type: Tab 0 ratings
1 star 2 stars 3 stars 4 stars 5 stars
comments

Massacre Tab

-------------------------------------------------------------------------------
			massacre - exploited
-------------------------------------------------------------------------------
Tabbed by:
Email:

Tuning:
[ Tab from: http://www.guitartabs.cc/tabs/e/exploited/massacre_tab.html ]
e|------------------------------------|
B|------------------------------------|
G|------------------------------------|
D|-------------5-5--------------------|
A|---7 7 7 7---3 3--5\7---------------|
E|---5 5 5 5--------3\5-------repeat--|

e|------------------------------|
B|------------------------------|
G|------------------------------|
D|------------------------------|
A|--99999999\----7--------------|
E|--77777777\----5----repeatx2--|
Comments