Exploited - Dead Cities Chords & Tabs

 

Dead Cities Chords & Tabs

Exploited Chords & Tabs

Version: 2 Type: Tab 0 ratings
1 star 2 stars 3 stars 4 stars 5 stars
comments

Dead Cities Tab

Tabbed by bRaiN dAMaGe
song Dead Cities
by the exploited on Totally exploited   Normal Tuning
                                                       1st riff
e-----------------------------------------------------------------------
b-----------------------------------------------------------------------
g-----------------------------------------------------------------------
d-5-55555555-5-55555555-3-33333333-10-10101010101010--------------------
a-5-55555555-5-55555555-3-33333333-10-10101010101010--------------------
e-3-33333333-3-33333333-1-11111111--8--8-8-8-8-8-8-8--------------------
[ Tab from: http://www.guitartabs.cc/tabs/e/exploited/dead_cities_tab_ver_2.html ]
Chorus
e-----------------------------------------------------------------------
b-----------------------------------------------------------------------
g-----------------------------------------------------------------------
d-5-55555555-5-55555555-10-1010101010101010-9-8-7-----------------------
a-5-55555555-5-55555555-10-1010101010101010-9-8-7-----------------------
e-3-33333333-3-33333333--8--8-8-8-8-8-8-8-8-7-6-5-----------------------

(play after 2nd chorus)                                 2nd riff
e-----------------------------------------------------------------------
b-----------------------------------------------------------------------
g-----------------------------------------------------------------------
d-1212121212121212-1010101010101010-99999999-77777777-------------------
a-1212121212121212-1010101010101010-99999999-77777777-------------------
e-1010101010101010--8-8-8-8-8-8-8-8-77777777-55555555-------------------

2nd time you play riff 2 end it like this
                                          
e-------------------------------------------
b-------------------------------------------
g-------------------------------------------
d-7-7-7777----------------------------------
a-7-7-7777----------------------------------
e-5-5-5555----------------------------------
Comments