Exploited - Beat The Bastards Chords & Tabs

 

Beat The Bastards Chords & Tabs

Exploited Chords & Tabs

Version: 2 Type: Tab 0 ratings
1 star 2 stars 3 stars 4 stars 5 stars
comments

Beat The Bastards Tab

   
Band: The Exploited

Song: Beat the Bastards

Year: 1981

DROP D TUNING OR THIS WILL SOUND HORRID!
This is the main intro: (distortion)

 E-----------------------------------------------------------|
 B-----------------------------------------------------------|
 G-2-2-2-2-2-2-2-2-2-2-2-2-2-2-2-5-5-5-5-5-5-5-7-7-8-8-8-8-7-|
 D-2-2-2-2-2-2-2-2-2-2-2-2-2-2-2-5-5-5-5-5-5-5-7-7-8-8-8-8-7-|
 A-0-0-0-0-0-0-0-0-0-0-0-0-0-0-0-3-3-3-3-3-3-3-5-5-6-6-6-6-5-|
 D-----------------------------------------------------------|

Almost mute the first notes on the second fret, to get the same sound as
big john.

After playing this 4-6 times, the verse begins. It is the same, only, the first notes 
well spaced from the rest of them, and the whole section is played 6-8 times.

Chorus:

E-----------------------------------------------------------|
B-----------------------------------------------------------|
G-----------------------------2--2-2-2-2-2--2--2-2-2-2-2----|
D-1--1-1-1-1-1--0--0-0-0-0-0--2--2-2-2-2-2--2--2-2-2-2-2----|
A-1--1-1-1-1-1--0--0-0-0-0-0--0--2-2-2-2-2--2--0-2-2-2-2----|
D-1--1-1-1-1-1--0--0-0-0-0-0--------------------------------|
[ Tab from: http://www.guitartabs.cc/tabs/e/exploited/beat_the_bastards_tab_ver_2.html ]
If you listen to the chorus closley, (mainly in the second part of the chorus, with no 
only bass, drums, and guitar) you hear slightly muted notes. I simply play these faster, 
do as you wish with your sound strategy.

After the chorus, often little solos are played. On the first chorus, it is only one 
but  something like this:

Solo 1:

E-------------------------------------------------------------|
B-------------------------------------------------------------|
G---8-X/9-----------------------------------------------------|
D---8-X/9-----------------------------------------------------|
A-------------------------------------------------------------|
D-------------------------------------------------------------|

Well its going on 5, so I'll tab the other post-chorus solo's later.

For now, heres the bass part so you can jam with a buddy. Hope this helps!

Intro & Verse:

G------------------------------|
D-------------------0-1-1-11---|
A--00000000-333333-------------|
D------------------------------|

Same rules as the guitar part.

Chorus:

G:|------------------------------|
D:|-------------------0-1-1-11---|
A:|--00000000-333333-------------|
D:|------------------------------|

Again, same.

Have Fun!

Will.

username: will_cheston
Comments