Exodus - Temple Of The Damned Chords & Tabs

 

Temple Of The Damned Chords & Tabs

Exodus Chords & Tabs

Version: 1 Type: Tab 0 ratings
1 star 2 stars 3 stars 4 stars 5 stars
comments

Temple Of The Damned Tab

   
Band: EXODUS
Album: TEMPO OF THE DAMNED
Song: TEMPO OF THE DAMNED

.  - palm mute           /  - slide up to
\  - slide down to       ~  - vibrato
h  - hammer on           b  - Bend
p  - pull off            Suffixes for bend
t  - tap                 f  - full bend    h - half bend
ph - pinched harmonic    q  - quarter bend t - tap bend
*  - see comment         ^  - Hold bend    r release bend
x  - Stuccatto           ~  - vibrato bend
.  - palm mute           () - ghost note, sustained note
"  - tremolo note        <> - Trill

Tunning D G C F A D (Detune 1 whole step)

TEMPO OF THE DAMNED

 Guitars 1 & 2                                                  (3x)
|----------------|----------------|----------------|----------------|
|----------------|----------------|----------------|----------------|
|----------------|----------------|----------------|----------------|
|----------------|----------------|----------------|----------------|
|3/4-----3/4-----|2/3\2---2/3---3-|4---2/3\2---2---|3/4----(4)------|
|1/2-----1/2-----|1/2\1p0-1/2-0-1-|2---1/2\1p0-1-0-|1/2----(2)------|
                                                 .
 Guitars 1 & 2
|----------------|----------------|----------------|
|----------------|----------------|----------------|
|----------------|----------------|----------------|
|----------------|----------------|----------------|
|3/4-----3/4-----|2/3\2---2/3---3-|4---2/3\2---2---|
|1/2-----1/2-----|1/2\1p0-1/2-0-1-|2---1/2\1p0-1-0-|
                                                 .

 Guitar 1 (Gary Holt)
|----------------|----------------|----------------|----------------|
|----------------|----------------|----------------|----------------|
|----------------|----------------|----------------|----------------|
|----------------|----------------|----------------|----------------|
|3/4-----2/3-----|3/4-----2/3-----|3/4-----2/3-----|----------------|
|1/2-00001/2-0000|1/2-00001/2-0000|1/2-00001/2-0000|1/2-22221/2-2222|
|    ....    ....     ....    ....     ....    .... (let ring)      |
|                                                                   |
|Guitar 2 (Rick Hunolt)                                             |
|----------------|----------------|----------------|----------------|
|----------------|----------------|----------------|----------------|
|----------------|----------------|----------------|----------------|
|----------------|----------------|----------------|----------------|
|----------------|----------------|----------------|----------------|
|----------------|----------------|----------------|------------2222|
                                                                ....

 Guitar 1
|----------------|----------------|----------------|----------------|
|----------------|----------------|----------------|----------------|
|----------------|----------------|----------------|----------------|
|----------------|----------------|----------------|----------------|
|3/4-----2/3-----|3/4-----2/3-----|3/4-----2/3-----|----------------|
|1/2-00001/2-0000|1/2-00001/2-0000|1/2-00001/2-0000|1/2-2-222-222-22|
|    ....    ....     ....    ....     ....    ....     . ... ... ..|
|                                                                   |
|Guitar 2                                                           |
|----------------|----------------|----------------|----------------|
|----------------|----------------|----------------|----------------|
|----------------|----------------|----------------|----------------|
|----------------|----------------|----------------|----------------|
|----------------|----------------|----------------|----------------|
|2-2---------2222|2-2---------2222|2-2---2-2-2---2-|2-2-2-222-222-22|
 . .         .... . .         .... . .   . . .   .  . . . ... ... ..

 Guitars 1 & 2
|----------------|----------------|----------------|----------------|
|----------------|----------------|----------------|----------------|
|----------------|----------------|----------------|----------------|
|----------------|----------------|----------------|----------------|
|3/4-----2/3-----|3/4-----2/3-----|3/4-----2/3-----|----------------|
|1/2-00001/2-0000|1/2-00001/2-0000|1/2-00001/2-0000|1/2-22221/2-2222|
     ....    ....     ....    ....     ....    .... (let ring)


 Guitars 1 & 2
|----------------|----------------|----------------|----------------|
|----------------|----------------|----------------|----------------|
|----------------|----------------|----------------|----------------|
|----------------|----------------|----------------|----------------|
|3/4-----2/3-----|3/4-----2/3-----|3/4-----2/3-----|----------------|
|1/2-00001/2-0000|1/2-00001/2-0000|1/2-00001/2-0000|1/2-2-222-222-22|
     ....    ....     ....    ....     ....    ....     . ... ... ..


 Guitars 1 & 2
|----------------|----------------|----------------|----------------|
|----------------|----------------|----------------|----------------|
|----------------|----------------|----------------|----------------|
|----------------|----------------|----------------|----------------|
|3/4-----2/3-----|3/4-----2/3-----|3/4-----2/3-----|----------------|
|1/2-00001/2-0000|1/2-00001/2-0000|1/2-00001/2-0000|1/2-22221/2-2222|
     ....    ....     ....    ....     ....    .... (let ring)


 Guitars 1 & 2
|----------------|----------------|----------------|----------------|
|----------------|----------------|----------------|----------------|
|----------------|----------------|----------------|----------------|
|----------------|----------------|----------------|----------------|
|3/4-----2/3-----|3/4-----2/3-----|3/4-----2/3-----|4/5---5/6---6/7-|
|1/2-00001/2-0000|1/2-00001/2-0000|1/2-00001/2-0000|2/3-0-3/4-0-4/5-|
     ....    ....     ....    ....     ....    ....     .     .

 Guitar 1                                                       (3x)
|----------------|----------------|----------------|----------------|
|----------------|----------------|----------------|----------------|
|----------------|----------------|----------------|----------------|
|----------------|----------------|----------------|----------------|
|----------------|----------------|----------------|----7\6-----6\5-|
|0-000-6~--0-6~--|0-000-6~--0-6~--|0-000-6~--0-6~--|00005\4-00004\3-|
|. ...     .      . ...     .      . ...     .      ....    ....    |
|                                                                   |
|Guitar 2                                                       (3x)|
|----------------|----------------|----------------|----------------|
|----------------|----------------|----------------|----------------|
|----------------|----------------|----------------|----------------|
|----------------|----------------|----------------|----------------|
|----------------|----------------|----------------|----7\6-----6\5-|
|0-000-3~--0-3~--|0-000-3~--0-3~--|0-000-3~--0-3~--|00005\4-00004\3-|
 . ...     .      . ...     .      . ...     .      ....    ....


 Guitar 1
|----------------|----------------|----------------|----------------|
|----------------|----------------|----------------|----------------|
|----------------|----------------|----------------|----------------|
|----------------|----------------|----------0-1-2-|----------------|
|----------------|----------------|------5---0-1-2-|3-2-------------|
|0-000-6~--0-6~--|0-000-6~--0-6~--|0-000-3---------|1-0-------------|
|. ...     .      . ...     .      . ...            . .             |
|                                                                   |
|Guitar 2                                                           |
|----------------|----------------|----------------|----------------|
|----------------|----------------|----------------|----------------|
|----------------|----------------|----------------|----------------|
|----------------|----------------|----------0-1-2-|----------------|
|----------------|----------------|------5---0-1-2-|3-2-------------|
|0-000-3~--0-3~--|0-000-3~--0-3~--|0-000-3---------|1-0-------------|
 . ...     .      . ...     .      . ...            . .

 VERSE 1
 Guitars 1 & 2
|----------------|----------------|----------------|----------------|
|----------------|----------------|----------------|----------------|
|----------------|----------------|----------------|----------------|
|----------------|----------------|----------------|----------------|
|3/4-----2/3-----|3/4-----2/3-----|3/4-----2/3-----|----------------|
|1/2-00001/2-0000|1/2-00001/2-0000|1/2-00001/2-0000|1/2-22221/2-2222|
     ....    ....     ....    ....     ....    .... (let ring)


 Guitars 1 & 2                                                  (3x)
|----------------|----------------|----------------|----------------|
|----------------|----------------|----------------|----------------|
|----------------|----------------|----------------|----------------|
|----------------|----------------|----------------|----------------|
|3/4-----2/3-----|3/4-----2/3-----|3/4-----2/3-----|----------------|
|1/2-00001/2-0000|1/2-00001/2-0000|1/2-00001/2-0000|1/2-2-222-222-22|
     ....    ....     ....    ....     ....    ....     . ... ... ..


 Guitars 1 & 2
|----------------|----------------|----------------|----------------|
|----------------|----------------|----------------|----------------|
|----------------|----------------|----------------|----------------|
|----------------|----------------|----------------|----------------|
|3/4-----2/3-----|3/4-----2/3-----|3/4-----2/3-----|----------------|
|1/2-00001/2-0000|1/2-00001/2-0000|1/2-00001/2-0000|1/2-22221/2-2222|
     ....    ....     ....    ....     ....    .... (let ring)


 Guitars 1 & 2
|----------------|----------------|----------------|----------------|
|----------------|----------------|----------------|----------------|
|----------------|----------------|----------------|----------------|
|----------------|----------------|----------------|----------------|
|3/4-----2/3-----|3/4-----2/3-----|3/4-----2/3-----|4/5---5/6---6/7-|
|1/2-00001/2-0000|1/2-00001/2-0000|1/2-00001/2-0000|2/3-0-3/4-0-4/5-|
     ....    ....     ....    ....     ....    ....     .     .

 CHORUS
 Guitar 1                                                       (3x)
|----------------|----------------|----------------|----------------|
|----------------|----------------|----------------|----------------|
|----------------|----------------|----------------|----------------|
|----------------|----------------|----------------|----------------|
|----------------|----------------|----------------|----7\6-----6\5-|
|0-000-6~--0-6~--|0-000-6~--0-6~--|0-000-6~--0-6~--|00005\4-00004\3-|
|. ...     .      . ...     .      . ...     .      ....    ....    |
|                                                                   |
|Guitar 2                                                       (3x)|
|----------------|----------------|----------------|----------------|
|----------------|----------------|----------------|----------------|
|----------------|----------------|----------------|----------------|
|----------------|----------------|----------------|----------------|
|----------------|----------------|----------------|----7\6-----6\5-|
|0-000-3~--0-3~--|0-000-3~--0-3~--|0-000-3~--0-3~--|00005\4-00004\3-|
 . ...     .      . ...     .      . ...     .      ....    ....

[ Tab from: http://www.guitartabs.cc/tabs/e/exodus/temple_of_the_damned_tab.html ]
 Guitar 1
|----------------|----------------|----------------|----------------|
|----------------|----------------|----------------|----------------|
|----------------|----------------|----------------|-----(solo)-----|
|----------------|----------------|----------0-1-2-|----------------|
|----------------|----------------|------5---0-1-2-|----------------|
|0-000-6~--0-6~--|0-000-6~--0-6~--|0-000-3---------|----------------|
|. ...     .      . ...     .      . ...                            |
|                                                                   |
|Guitar 2                                                           |
|----------------|----------------|----------------|----------------|
|----------------|----------------|----------------|----------------|
|----------------|----------------|----------------|----------------|
|----------------|----------------|----------0-1-2-|----------------|
|----------------|----------------|------5---0-1-2-|2------(2)------|
|0-000-3~--0-3~--|0-000-3~--0-3~--|0-000-3---------|0------(0)------|
 . ...     .      . ...     .      . ...

 GUITAR SOLOS (Guitars 1 & 2)
|----------------|----------------|----------------|----------------|
|----------------|----------------|----------------|----------------|
|----------------|----------------|----------------|----------------|
|----------0-1-2-|----------0-1-2-|----------0-1-2-|--0-1-2---0-1-2-|
|2-----5---0-1-2-|2-----5---0-1-2-|2-----5---0-1-2-|--0-1-2---0-1-2-|
|0-0-0-3-0-------|0-0-0-3-0-------|0-0-0-3-0-------|0-------0-------|
   . .   .          . .   .          . .   .        .       .

 INTERLUDE
 Guitar 1
|----------------|----------------|----------------|----------------|
|----------------|----------------|----------------|----------------|
|----------------|----------------|----------------|----------------|
|----------0-1-2-|--0-1-2---0-1-2-|----------0-1-2-|--0-1-2---0-1-2-|
|2-----2---0-1-2-|--0-1-2---0-1-2-|2-----2---0-1-2-|--0-1-2---0-1-2-|
|0-0-0-0-0-------|0-------0-------|0-0-0-0-0-------|0-------0-------|
|  . .   .        .       .          . .   .        .       .       |
|                                                                   |
|Guitar 2                                                           |
|----------------|----------------|----------------|----------------|
|----------------|----------------|----------------|----------------|
|----------------|----------------|----------------|----------------|
|----------------|----------------|----------------|----------------|
|2------(2)------|----------------|5------(5)------|----------------|
|0------(0)------|----------------|3------(3)------|----------------|


 Guitar 1                                                       (2x)
|----------------|----------------|----------------|----------------|
|----------------|----------------|----------------|----------------|
|----------------|----------------|----------------|----------------|
|----------0-1-2-|--0-1-2---0-1-2-|----------0-1-2-|--0-1-2---0-1-2-|
|2-----2---0-1-2-|--0-1-2---0-1-2-|2-----2---0-1-2-|--0-1-2---0-1-2-|
|0-0-0-0-0-------|0-------0-------|0-0-0-0-0-------|0-------0-------|
|  . .   .        .       .          . .   .        .       .       |
|                                                                   |
|Guitar 2                                                       (2x)|
|----------------|----------------|----------------|----------------|
|----------------|----------------|----------------|----------------|
|----------------|----------------|----------------|----------------|
|3------(3)------|--------3-------|----------------|----------------|
|1------(1)------|--------1p0-5-0-|3------(3)------|----------------|
|----------------|------------3---|1------(1)------|----------------|
                              .

 Guitar 1
|----------------|----------------|----------------|----------------|
|----------------|----------------|----------------|----------------|
|----------------|----------------|----------------|----------------|
|----------0-1-2-|--0-1-2---0-1-2-|----------0-1-2-|--0-1-2---0-1-2-|
|2-----2---0-1-2-|--0-1-2---0-1-2-|2-----2---0-1-2-|--0-1-2---0-1-2-|
|0-0-0-0---------|0-------0-------|0-0-0-0-0-------|0-------0-------|
|  . .            .       .          . .   .        .       .       |
|                                                                   |
|Guitar 2                                                           |
|----------------|----------------|----------------|----------------|
|----------------|----------------|----------------|----------------|
|----------------|----------------|----------------|----------------|
|----------------|--2---2---2---2-|----------------|--2---2---2---2-|
|2------(2)------|----5---2---5---|5------(5)------|----5---2---5---|
|0------(0)------|--------0-------|3------(3)------|--------0-------|


 Guitar 1                                                       (2x)
|----------------|----------------|----------------|----------------|
|----------------|----------------|----------------|----------------|
|----------------|----------------|----------------|----------------|
|----------0-1-2-|--0-1-2---0-1-2-|----------0-1-2-|--0-1-2---0-1-2-|
|2-----2---0-1-2-|--0-1-2---0-1-2-|2-----2---0-1-2-|--0-1-2---0-1-2-|
|0-0-0-0---------|0-------0-------|0-0-0-0-0-------|0-------0-------|
|  . .            .       .          . .   .        .       .       |
|                                                                   |
|Guitar 2                                                       (2x)|
|----------------|----------------|----------------|----------------|
|----------------|----------------|----------------|----------------|
|----------------|----------------|----------------|----------------|
|3------(3)------|--2---2---2---2-|----------------|--2---2---2---2-|
|1------(1)------|----5---2---5---|3------(3)------|----5---2---5---|
|----------------|--------0-------|1------(1)------|--------0-------|


 Guitar 1                                                       (2x)
|----------------|----------------|----------------|----------------|
|----------------|----------------|----------------|----------------|
|----------------|----------------|----------------|----------------|
|----------------|----------------|----------------|----------------|
|----------------|----------------|----------------|----------------|
|0---0-6~--0-6~--|0---0-6~--0-6~--|0---0-6~--0-6~--|0---0-6~--0-6~--|
|                                                                   |
|                                                                   |
|Guitar 2                                                       (2x)|
|----------------|----------------|----------------|----------------|
|----------------|----------------|----------------|----------------|
|----------------|----------------|----------------|----------------|
|----------------|----------------|----------------|----------------|
|----------------|----------------|----------------|----------------|
|0---5-6~--5-6p5-|0---5-6~--5-6p5-|0---5-6~--5-6p5-|0---5-6~--5-6p5-|



 Guitar 1
|----------------|----------------|----------------|----------------|
|----------------|----------------|----------------|----------------|
|----------------|----------------|----------------|----------------|
|----------------|----------------|----------0-1-2-|----------------|
|----------------|----------------|------5---0-1-2-|3-2---2---2---2-|
|0---0-6~--0-6~--|0---0-6~--0-6~--|0-000-3---------|1-0---0---0---0-|
|.                .                . ...            . .   .   .   . |
|                                                                   |
|Guitar 2                                                           |
|----------------|----------------|----------------|----------------|
|----------------|----------------|----------------|----------------|
|----------------|----------------|----------------|----------------|
|----------------|----------------|----------0-1-2-|----------------|
|----------------|----------------|------5---0-1-2-|3-2---2---2---2-|
|0---5-6~--5-6p5-|0---5-6~--5-6p5-|0-000-3---------|1-0---0---0---0-|
 .                .                . ...            . .   .   .   .


 Guitar 1
|----------------|
|----------------|
|----------------|
|----------------|
|3-2-----------2~|
|1-0---------0-1~|
|. .         .   |
|                |
|Guitar 2        |
|----------------|
|----------------|
|----------------|
|----------------|
|3-2-----------2~|
|1-0---------0-1~|
 . .         .

 VERSE 2
 Guitars 1 & 2
|----------------|----------------|----------------|----------------|
|----------------|----------------|----------------|----------------|
|----------------|----------------|----------------|----------------|
|----------------|----------------|----------------|----------------|
|3/4-----2/3-----|3/4-----2/3-----|3/4-----2/3-----|----------------|
|1/2-00001/2-0000|1/2-00001/2-0000|1/2-00001/2-0000|1/2-22221/2-2222|
     ....    ....     ....    ....     ....    .... (let ring)


 Guitars 1 & 2                                                  (3x)
|----------------|----------------|----------------|----------------|
|----------------|----------------|----------------|----------------|
|----------------|----------------|----------------|----------------|
|----------------|----------------|----------------|----------------|
|3/4-----2/3-----|3/4-----2/3-----|3/4-----2/3-----|----------------|
|1/2-00001/2-0000|1/2-00001/2-0000|1/2-00001/2-0000|1/2-2-222-222-22|
     ....    ....     ....    ....     ....    ....     . ... ... ..

 Guitars 1 & 2
|----------------|----------------|----------------|----------------|
|----------------|----------------|----------------|----------------|
|----------------|----------------|----------------|----------------|
|----------------|----------------|----------------|----------------|
|3/4-----2/3-----|3/4-----2/3-----|3/4-----2/3-----|----------------|
|1/2-00001/2-0000|1/2-00001/2-0000|1/2-00001/2-0000|1/2-22221/2-2222|
     ....    ....     ....    ....     ....    .... (let ring)

 Guitars 1 & 2
|----------------|----------------|----------------|----------------|
|----------------|----------------|----------------|----------------|
|----------------|----------------|----------------|----------------|
|----------------|----------------|----------------|----------------|
|3/4-----2/3-----|3/4-----2/3-----|3/4-----2/3-----|4/5---5/6---6/7-|
|1/2-00001/2-0000|1/2-00001/2-0000|1/2-00001/2-0000|2/3-0-3/4-0-4/5-|
     ....    ....     ....    ....     ....    ....     .     .

 CHORUS 2
 Guitar 1                                                       (3x)
|----------------|----------------|----------------|----------------|
|----------------|----------------|----------------|----------------|
|----------------|----------------|----------------|----------------|
|----------------|----------------|----------------|----------------|
|----------------|----------------|----------------|----7\6-----6\5-|
|0-000-6~--0-6~--|0-000-6~--0-6~--|0-000-6~--0-6~--|00005\4-00004\3-|
|. ...     .      . ...     .      . ...     .      ....    ....    |
|                                                                   |
|Guitar 2                                                       (3x)|
|----------------|----------------|----------------|----------------|
|----------------|----------------|----------------|----------------|
|----------------|----------------|----------------|----------------|
|----------------|----------------|----------------|----------------|
|----------------|----------------|----------------|----7\6-----6\5-|
|0-000-3~--0-3~--|0-000-3~--0-3~--|0-000-3~--0-3~--|00005\4-00004\3-|
 . ...     .      . ...     .      . ...     .      ....    ....


 Guitar 1
|----------------|----------------|----------------|----------------|
|----------------|----------------|----------------|----------------|
|----------------|----------------|----------------|----------------|
|----------------|----------------|----------0-1-2-|----------0-1-2-|
|----------------|----------------|------5---0-1-2-|------5---0-1-2-|
|0-000-6~--0-6~--|0-000-6~--0-6~--|0-000-3---------|0-000-3---------|
|. ...     .      . ...     .      . ...            . ...           |
|                                                                   |
|Guitar 2                                                           |
|----------------|----------------|----------------|----------------|
|----------------|----------------|----------------|----------------|
|----------------|----------------|----------------|----------------|
|----------------|----------------|----------0-1-2-|----------0-1-2-|
|----------------|----------------|------5---0-1-2-|------5---0-1-2-|
|0-000-3~--0-3~--|0-000-3~--0-3~--|0-000-3---------|0-000-3---------|
 . ...     .      . ...     .      . ...            . ...


 Guitars 1 & 2
|----------------|----------------|----------------|
|----------------|----------------|----------------|
|----------------|----------------|----------------|
|----------0-1-2-|----------------|----------------|
|------5---0-1-2-|3-2---2---2---2-|2---------------|
|0-000-3---------|1-0---0---0---0-|0---------------|
 . ...            . .   .   .   .  .
Comments