Exodus - Feeding Time At The Zoo Chords & Tabs

 

Feeding Time At The Zoo Chords & Tabs

Exodus Chords & Tabs

Version: 1 Type: Tab 0 ratings
1 star 2 stars 3 stars 4 stars 5 stars
comments

Feeding Time At The Zoo Tab

   
Band:  Exodus
Album: Force Of Habit
Song:  Feeding Time At The Zoo

Copyright (c)  (Capitol) (1992)
Version 1.0 - (20/04/05)

Transcribed By: Steve
Email:          stephen.elvidge1@ntlworld.com


.  - palm mute           /  - slide up to
\  - slide down to       ~  - vibrato
h  - hammer on           b  - Bend
p  - pull off            Suffixes for bend
t  - tap                 f  - full bend    h - half bend
ph - pinched harmonic    q  - quarter bend t - tap bend
*  - see comment         ^  - Hold bend    r release bend
x  - Stuccatto           ~  - vibrato bend
,  - slight palm mute    () - ghost note, sustained note
"  - tremolo note        <> - Trill

Tunning E A D G B E
 

 Intro

 Riff A

  Guitar 1
  [----PM----]    [----PM----]
E[----------------------------------|
B[----------------------------------|
G[------------10-------------10-----|
D[-9--9--8--9----9-9--9--8--9---9---|
A[-7--7--7--7------7--7--7--7-------|
E[----------------------------------|
 [
 [Guitar 2
 [[------------PM--------------]
E[----------------------------------|
B[----------------------------------|
G[----------------------------------|
D[----------------------------------|
A[-------------------------------5--|
E[-000-000-000-000-000-000-00000----|

 Riff B

  Guitar 1
  [----PM----]    [--PM--]
E[----------------------------------|
B[----------------------------------|
G[------------10-------------12b12--|
D[-9--9--8--9----9-9--9--8/--12b12--|
A[-7--7--7--7------7--7--7----------|
E[----------------------------------|
 [
 [Guitar 2
 [[------------PM--------------]
E[----------------------------------|
B[----------------------------------|
G[----------------------------------|
D[----------------------------------|
A[-------------------------------5--|
E[-000-000-000-000-000-000-00000----|

 Rpt Riff A

  Guitar 1 
  [----PM----]     [----PM---]
E[-----------------------------|
B[-----------------------------|
G[------------10---------------|
D[-9--9--8--9----9-------------|
A[-7--7--7--7------9\8\7-6\5\4-|
E[-----------------7\6\5-4\3\2-|
 [
 [Guitar 2
 [[------------PM-------------]
E[-----------------------------|
B[-----------------------------|
G[-----------------------------|
D[-----------------------------|
A[-----------------9\8\7-6\5\4-|
E[-000-000-000-000-7\6\5-4\3\2-|

 Main Riff

 Riff C

  Guitar 1
  [----PM----]    [----PM---]
E[----------------------------------|
B[----------------------------------|
G[------------10-------------10-----|
D[-9--9--8--9----9-9--9--8--9---9---|
A[-7--7--7--7------7--7--7--7-------|
E[----------------------------------|
 [
 [Guitar 2
 [[------------PM--------------]
E[----------------------------------|
B[----------------------------------|
G[----------------------------------|
D[----------------------------------|
A[----------------------------------|
E[-000-000-000-000-000-000-000-000--|

  Guitar 1
  [----PM----]    [---PM--]
E[----------------------------------|
B[----------------------------------|
G[------------10-------------12b12--|
D[-9--9--8--9----9-9--9--8/--12b12--|
A[-7--7--7--7------7--7--7----------|
E[----------------------------------|
 [
 [Guitar 2
 [[------------PM--------------]
E[----------------------------------|
B[----------------------------------|
G[----------------------------------|
D[----------------------------------|
A[---------------------------5--5---|
E[-000-000-000-000-000-000-003--3---|

 Rpt Riff C

  Guitar 1 
  [----PM----]    [----PM----][-----------PM-----------]
E[-----------------------------------------------------|
B[-----------------------------------------------------|
G[------------10---------------------------------------|
D[-9--9--8--9----9-9--9--8--9-7/8/9----9----9----7/8/9-|
A[-7--7--7--7------7--7--7--7-5/6/7----7----7----5/6/7-|
E[--------------------------------0-00-0-00-0-00-------|
 [
 [Guitar 2
 [[------------PM------------]   [------PM------]
E[-----------------------------------------------------|
B[-----------------------------------------------------|
G[-----------------------------------------------------|
D[-----------------------------------------------------|
A[----------------------------0-1-2--------------0-1-2-|
E[-000-000-000-000-000-000-000----0-00-0-00-0-00-------|

 Rpt Riff C

  Guitar 1 
  [----PM----]    [----PM----] [PM]
E[---------------------------------------|
B[---------------------------------------|
G[------------10-------------------------|
D[-9--9--8--9----9-9--9--8--9-7/8/9-(9)\-|
A[-7--7--7--7------7--7--7--7-5/6/7-(7)\-|
E[---------------------------------------|
 [
 [Guitar 2
 [[------------PM------------]   
E[---------------------------------------|
B[---------------------------------------|
G[---------------------------------------|
D[---------------------------------------|
A[----------------------------0-1-2-(2)\-|
E[-000-000-000-000-000-000-000----0-(0)\-|


 [-----PM------]
E----------------|
B----------------|
G----------------|
D----------------|
A-8---8---8---8--|
E-6-666-666-666--|
[ Tab from: http://www.guitartabs.cc/tabs/e/exodus/feeding_time_at_the_zoo_tab.html ]
 Verse
 Riff D
 [------PM--------]
E------------------|
B------------------|
G------------------|
D-9--9--8--9--8--7-|
A-7--7--7--7--7--7-|
E--00-0------------| Rpt 3 X

E------------------|
B------------------|
G-----------12-12--|
D-9--9--8/--12-12--|
A-7--7--7----------|
E------------------|

 Rpt Riff D 2 X

[-----------PM------------]
E--------------------------|
B--------------------------|
G--------------------------|
D-7/8/9----9----9----7/8/9-|
A-5/6/7----7----7----5/6/7-|
E-----0-00-0-00-0-00-------|

 Rpt above replacing las riff with this.

  Guitar 1
        [-----PM-----]
E[--------------------|
B[--------------------|
G[--------------------|
D[-7/8/9--------------|
A[-5/6/7--------------|
E[-----0-000000000000-|
 [
 [Guitar 2
 [      [-----PM-----]
E[--------------------|
B[--------------------|
G[--------------------|
D[-7/8/9-999999999999-|
A[-5/6/7-777777777777-|
E[-----0--------------|

 Bridge

  [--PM-]        [--PM-]        [--PM-]       [PM] ~~~[PM] ~~~~
E---------------------------------------------------------------|
B---------------------------------------------------------------|
G---------------------------------------------------------------|
D-7----7/9-9-8-7-7----7/9-9-8-7-7----7/9-9-8-7-----8-8-----8-8--|
A-5-5555/7-------5-5555/7-------5-5555/7-----------7-7-----7-7--|
E----------------------------------------------666-----666------|

  [--PM-]        [--PM-]       [-------PM------]       
E----------------------------------------------------|
B----------------------------------------------------|
G----------------------------------------------------|
D-7----7/9-9-8-7-7----7/9-9-8-7----------------------|
A-5-5555/7-------5-5555/7-------999\888\777/999\8--\-|
E-------------------------------777\666\555/777\6--\-|

 [---PM----]
E----------------|
B----------------|
G----------------|
D----------------|
A-8---8---8-8-8--|
E-6-666-666-6-6--|


 Chorus is Main Riff section.
 Rpt Verse, Bridge and Chorus 2 X.
 
 Backing for guitar solo
 [--PM-]
E-------|
B-------|
G-------|
D-7/8/9-|
A-5/6/7-|
E-------|

 [-PM-]       [-PM-]     [-PM-]      [-PM-]   [-PM-]
E---------------------------------------------------|
B---------------------------------------------------|
G---------------------------------------------------|
D---------------------------------------------7/8/9-|
A-2-2-2-1-3-2-2-2-2-1-3-2-2-2-2-1-3-2-2-2-2-1-5/6/7-|
E-0-0-0-------0-0-0-------0-0-0-------0-0-0---------|

 [-PM-]       [-PM-]     [-PM-]      [------PM-----][-PM-]
E----------------------------------------------------------|
B----------------------------------------------------------|
G----------------------------------------------------------|
D----------------------------------------------------7/8/6-|
A-2-2-2-1-3-2-2-2-2-1-3-2-2-2-2-2-1-0-7----7----7----5/6/7-|
E-0-0-0-------0-0-0-------0-0-0-------0-00-0-00-0-00-------|

 Rpt above 2 riffs 3 X.

 Lead line at end of solo
                                         ~~~~~~
E----------------------------------------------|
B----------------------------------------------|
G-------7-5---------9-7----------10-8-10-9-----|
D---7-------7---9-------9---10-----------------|
A-7---7-------7---7-------8----8---------------|
E----------------------------------------------|

                                         ~~~~
E----------------------------------------------|
B-------------------------------------15b----\-|
G-------7-5---------9-7-9--------10-8/---------|
D---7-------7---9-----------10-----------------|
A-7---7-------7---7-------8----8---------------|
E----------------------------------------------|


  [--PM-]        [--PM-]       [----PM----]       
E-------------------------------------------------|
B-------------------------------------------------|
G-------------------------------------------------|
D-7----7/9-9-8-7-7----7/9-9-8-7-------------7-----|
A-5-5555/7-------5-5555/7-------999\888\777-5-8---|
E-------------------------------777\666\555---6---|

  Guitar 1
  [PM]           [PM]          [PM]          [PM]
E[---------------------------------------------------------|
B[---------------------------------------------------------|
G[-----------7-------------7-------------7-------------7/--|
D[-9-9-9-8-9---9-9-9-9-8-9---9-9-9-9-8-9---9-9-9-9-8-9-----|
A[-7-7-----------7-7-----------7-7-----------7-7-----------|
E[---------------------------------------------------------|
 [
 [Guitar 2                                              ~~~
E[---------------------------------------------------------|
B[---------------------------------------------------------|
G[---7---7-8-108---7---7-8-108---7---7-8-108---7---7-8-10--|
D[-6---6---------6---6---------6---6---------6---6---------|
A[---------------------------------------------------------|
E[---------------------------------------------------------|

 Rpt above riffs.
  
 [-------PM-------]
E------------------|
B------------------|
G------------------|
D-7-7-77-7-77-7-77-|
A-5-5-55-5-55-5-55-|
E------------------| Rpt 8 X

 [-----PM----]
E-------------|
B-------------|
G-------------|
D-------------|
A-9\8\7-6\5\4-|
E-7\6\5-4\3\2-|

 Rpt Chorus 2 X  

 [-----PM-----]
E-----------------|
B-----------------|
G-----------------|
D---------------2-|
A-8---8---8---8-2-|
E-6-666-666-666-0-|




END
Comments