Exit-13 - If Youre A Viper Chords & Tabs

 

If Youre A Viper Chords & Tabs

Exit-13 Chords & Tabs

Version: 1 Type: Tab 0 ratings
1 star 2 stars 3 stars 4 stars 5 stars
comments

If Youre A Viper Tab

   
Later
   PAtrick
If You're a Viper - 
by Exit-13
>From the album "Smoking Songs"
Trascription by : Balsama (P. Mackay)
E-Mail address :  lord_balsama@hotmail.com


Tab Notation:
X- don't play that string
^- bend note

Tuning E


 
This Tablature was created with Tab Form Creator by Ugo Gasparri
ugo_er_mejo@geocities.com

 
* Riff 1 (play over piano in this order)

   DbMa7  Dbm7  Gb6   Ab7 (I)
E-|-4---/--4--/--x--/--x----------------------------------------------
B-|-6---/--5--/--2--/--4----------------------------------------------
G-|-5---/--4--/--3--/--5----------------------------------------------
D-|-6---/--6--/--1--/--4----------------------------------------------
A-|-4---/--4--/--x--/--x----------------------------------------------
E-|-x---/--x--/--2--/--4----------------------------------------------
 
* 
* 
* 
* Riff 2 (vocals)
   Bbm7  Ebm7   F7    F#7   Gdim7    Ab7(II)
E-|-6-/---6---/--8--/--9--/----x-----/-11----------------------------
B-|-6-/---7---/--10-/-11--/---11-----/-13----------------------------
G-|-6-/---6---/--8--/--9--/----9-----/-11----------------------------
D-|-6-/---8---/--10-/-11--/---11-----/-13----------------------------
A-|-x-/---6---/--8--/--9--/---10-----/-11----------------------------
E-|-6-/---x---/--x--/--x--/----x-----/--x----------------------------
 
*play Riff 2 like this 
* DbMa7  Bbm7  Ebm7  Ab7 (I)
* DbMa7  Bbm7  Ebm7  Ab7 (I) 
* DbMa7  F7    F#7   Ab7 (II)

[ Tab from: http://www.guitartabs.cc/tabs/e/exit_13/if_youre_a_viper_tab.html ]
 Riff 3 (Bridge)
   Db7   Eb7
E-|-7--/--6--/-------------------------------------------------------
B-|-6--/--8--/-------------------------------------------------------
G-|-6--/--6--/-------------------------------------------------------
D-|-6--/--8--/-------------------------------------------------------
A-|-4--/--6--/-------------------------------------------------------
E-|-x--/--x--/-------------------------------------------------------
 
* Play Riff 3 like this:
* 
* Db7  F#7  Eb7  Ab7(II)
* 

    *  Guitar Solo  *
E-|-13-13-12-12-11-11-9----------------------------------------------
B-|-12-12-11-11-10-10-9-9-11-9-11^-11-9-11-9-11^-9-11-9-11-9---------
G-|-----------------------------------9-11-9-11^-9-11-9--------------
D-|------------------------------------------------------------------
A-|------------------------------------------------------------------
E-|------------------------------------------------------------------
 
* 
* 
* 
* (continued)
E-|9-9-12-14-14^-12--------------------18----------------------------
B-|-----------------14-14-17^-17-14-14-18----------------------------
G-|------------------------------------------------------------------
D-|------------------------------------------------------------------
A-|------------------------------------------------------------------
E-|------------------------------------------------------------------
 
I believe that everything.  Enjoy!
Transcribed by P. Mackay and BMF
Tabbed by P. Mackay
Questions, comments , corrections, 

	E-mail     lord_balsama@hotmail.com
Comments