Exit - Dice Chords & Tabs

 

Dice Chords & Tabs

Exit Chords & Tabs

Version: 1 Type: Tab 0 ratings
1 star 2 stars 3 stars 4 stars 5 stars
comments

Dice Tab

Submitted by:Suncrusher77@hotmail.com
Band:Exit
Song:Dice
          Wicked awesome song

E-------2-3---2-3-2---2-3---2-3-2---2-3-2---2-3-2-0---2-3-2---2-3-2-0-------------------------
B-0---0-----0-------0-----0-------0-------0---------0-------0------------------
G---------------------------------------------------------------------
D---------------------------------------------------------------------
A---------------------------------------------------------------------
E---------------------------------------------------------------------

E---2-3-2-0-3-2-0---2-3-2-0-3-2-0---2-3-2-0-3-2-0---2-3-2-0-3-2-0---------------------------------
B-0---------------0---------------0---------------0-----------------------
G---------------------------------------------------------------------
D---------------------------------------------------------------------
A---------------------------------------------------------------------
E---------------------------------------------------------------------
[ Tab from: http://www.guitartabs.cc/tabs/e/exit/dice_tab.html ]
E-22222222-33333333-22222222-33333333-22222222-33333333-22222222--------------------------------------------------------------
B-00000000-00000000-00000000-00000000-00000000-00000000-00000000--------------------------------------------------------------
G---------------------------------------------------------------------
D---------------------------------------------------------------------
A---------------------------------------------------------------------
E---------------------------------------------------------------------

E-33333333-12-14-10-8-8--12-14-10-8-8---2-3-0---2-3-0---2-3-0---2-3-0--------------------------------------
B-00000000----------------------------0-------0-------0-------0-------------------
G---------------------------------------------------------------------
D---------------------------------------------------------------------
A---------------------------------------------------------------------
E---------------------------------------------------------------------

E---2-3-0---2-3-0---2-3-0---2-3-0---2-3-0---2-3-0-2-3-2-3-2-3-2-3-------------------------------
B-0-------0-------0-------0-------0-------0---------0---0---0---0---------------
G---------------------------------------------------------------------
D---------------------------------------------------------------------
A---------------------------------------------------------------------
E---------------------------------------------------------------------

E---2---3---2---3---2---3---2---3---2---3---2---3---------------------------------
B-0---0---0---0---0---0---0---0---0---0---0---0-----------------------------------
G----------------------------------------------------------------------
D---------------------------------------------------------------------
A---------------------------------------------------------------------
E---------------------------------------------------------------------
Comments