Exilia - Underdog Chords & Tabs

 

Underdog Chords & Tabs

Exilia Chords & Tabs

Version: 1 Type: Tab 0 ratings
1 star 2 stars 3 stars 4 stars 5 stars
comments

Underdog Tab

   
-------------------------------------------------------------------------------
			     Underdog - Exilia
-------------------------------------------------------------------------------
Tabbed by: Chriss
Email: Megalomaniac@grin.de

I tabbed this song in Drop-B, because its my standart tunnig!!
If you want to you can you standart sixstring tunning(the deepest note is an E),
but then you have to rearrange all the Chords!!
BTW its much easier to play it in Drop-B. trust me!!
have fun

Tuning: Drop-B

Intro/Chorus
C#|-----------------------------------------------------------------|
G#|-----------------------------------------------------------------|
E |-----------------------------------------------------------------|
B |-2-4-4-2-4-4-6-6-6-6-7-7-7-7-9-9-9-9-5-5-5-5/7-7-7--5-5--7--6--4-|x2
F#|-0-2-2-0-2-2-4-4-4-4-5-5-5-5-7-7-7-7-5-5-5-5/7-7-7--5-5--5--4--2-|
B |-------------------------------------5-5-5-5/7-7-7--5-5----------|
[ Tab from: http://www.guitartabs.cc/tabs/e/exilia/underdog_tab.html ]
Verse 1.1
(light distortion)
C#|-------------------------------------------------------------------|
G#|-------------------------------------------------------------------|
E |-------------------------------------------------------------------|
B |--------------------------------------------------12-12-12-12------|x2
F#|-7-9-9-7-9-9-9-9-9-9-10-10-10-7-9-9-7-9-9-9-9-9-9------------------|
B |-7-9-9-7-9--------------------7-9-9-7-9----------------------------|
Verse 1.2     x x x x x x  x  x            x x x x x 
(heavy distortion)
C#|-----------------------------------------|
G#|----------------------------15-15-15-15--|
E |-----------1112----------11-x--x--x--x---|
B |-7-9-9-7-9-x--x-----------x-12-12-12-12--|x2
F#|-7-9-9-7-9-9/10-7-9-9-7-9-9--------------|
B |-7-9-9-7-9------7-9-9-7-9----------------|

Fill (light distortion)
C#|----------------------|
G#|----------------------|
E |-6-6--8-8-------------|
B |-4-4--6-6--9-9--5-5---|x2
F#|-2-2--4-4--7-7--5-5---|
B |-----------7-7--5-5---|

then 
Chorus
Verse 1.1
Verse 1.2
Fill
Chorus


Heavy Bridge


C#|------------------------------------------------------------|
G#|------------------------------------------------------------|
E |------------------------------------------------------------|
B |------------------------------------------------------------|x4
F#|--------------------------10-9---------------------------10~|
B |-9-10-10-7-9--9-10-10-7-9-------9-10-10-7-9--9-10-10-7-9----|
    x x  x  x x  x x  x  x x       x x  x  x x  x x  x  x x 

C#|--------------------------------------------------------------|
G#|--------------------------------------------------------------|
E |--------------------------12-10--------------------------12~--|
B |-9-10-10-7-9--9-10-10-7-9-x--x--9-10-10-7-9--9-10-10-7-9-x----|x8
F#|-9-10-10-7-9--9-10-10-7-9-10-9--9-10-10-7-9--9-10-10-7-9-10~--|
B |-9-10-10-7-9--9-10-10-7-9-------9-10-10-7-9--9-10-10-7-9------|

then
Chorus couple of times
and thats it!!!
enjoy Exilia!!!
Comments