Exilia - Coincidence Chords & Tabs

 

Coincidence Chords & Tabs

Exilia Chords & Tabs

Version: 1 Type: Tab 0 ratings
1 star 2 stars 3 stars 4 stars 5 stars
comments

Coincidence Tab

   
-------------------------------------------------------------------------------
			     Coincidence - Exilia
-------------------------------------------------------------------------------
Exilia are a nu metal/nu rock band from italien. They have a female singer who kicks
ass!! Their Guitarrist isnt bad either!!
Check them out www.Exilia.de

Tabbed by:Chriss
Email: Megalomaniac@grin.de

I was searching for Exilia tabs but cant find some! So i had to figure it out by myself!
Maybe its wrong but it sounds fine to me!
I think their guitarrist uses a sevenstring in standart tunning but Drop-B will do it!!!


Tuning: Drop-B

Piano intro

than 

Main Riff
C#|---------------------------------------------------|
G#|---------------------------------------------------|
E |-------9/11-----7-7-7-7-----9/11-----12-12-12-12---|
B |---------------------------------------------------|
F#|---4-4-7/9--4-4-5-5-5-5-4-4-7/9--4-4-10-10-10-10---|
B |---4-4------4-4---------4-4------4-4---------------|
[ Tab from: http://www.guitartabs.cc/tabs/e/exilia/coincidence_tab.html ]
Verse Riff  all notes are Palm muted (exept the harmonic)
C#|---------------------------------------------------|
G#|---------------------------------------------------|
E |---------------------------------------------------|
B |------4-------4-5-5-----4--------------------------|
F#|-----------------------------------<3>-------------|
B |--4-4---4-4-4-------4-4---4-4-4-4------------------|

Chorus Riff
C#|----------------------------------------------------------------|
G#|----------------5-5-5-5-5-5-5--7-7-7-7-7-7-7--------------------|
E |-7-7-7-7-7-7-7--4-4-4-4-4-4-4--6-6-6-6-6-6-6--------------------|
B |-7-7-7-7-7-7-7--2-2-2-2-2-2-2--4-4-4-4-4-4-4--9-9-9-9-9-9-9-----|
F#|-0-0-0-0-0-0-0--2-2-2-2-2-2-2--4-4-4-4-4-4-4--7-7-7-7-7-7-7-----|
B |-0-0-0-0-0-0-0--2-2-2-2-2-2-2--4-4-4-4-4-4-4--7-7-7-7-7-7-7-----|

do the main riff couple of times and then

Fill
C#|--------------------|
G#|-5-5--7-7--8-8------|
E |-4-4--6-6--7-7------|
B |-2-2--4-4--5-5------|
F#|-2-2--4-4--5-5------|
B |-2-2--4-4--5-5------|

verse riff
chorus riff
main riff
fill 
main riff

fill

then this a couple of times

C#|--------------------------------------------------------|
G#|--------------------------------------------------------|
E |--------------------------------------------------------|
B |--------------------------------------------------------|
F#|--4-5-4-5-4/5--4-5-4-5-4/5--4-5-4-5--7-7-7-7------------|
B |--4-5-4-5-4/5--4-5-4-5-4/5--4-5-4-5--7-7-7-7------------|

back to chorus riff

End
C#|------------------------------------|
G#|------------------------------------|
E |------------------------------------|
B |------------------------------------|
F#|-5-x-<3>-5-x-x-xx-5-x-<3>-5-x-x-xx--|
B |-5-x-<3>-5-x-x-xx-5-x-<3>-5-x-x-xx--|

Thats it! Exilia rulez
Comments