Exies - What You Deserve Chords & Tabs

 

What You Deserve Chords & Tabs

Exies Chords & Tabs

Version: 1 Type: Tab 0 ratings
1 star 2 stars 3 stars 4 stars 5 stars
comments

What You Deserve Tab

Band- Exies
Song- What You Deserve

Drop D tuning 
listen for correct timing 


Intro
|---------------------------------------|
|---------------------------------------|
|---------------------------------------|
|--6-6-6-6---4------repeat 8x-----------|
|--6-6-6-6---4--------------------------|
|--6-6-6-6---4--------------------------|
   v ^ v ^   v

verse|
|------------------------------------------------------|
|------------------------------------------------------|
|------------------------------------------------------|
|--8-8-8-8--8-8-8-8--6-6-6-6--4-4-4-4-2-2-2-2----------|      repeat 3x
|--8-8-8-8--8-8-8-8--6-6-6-6--4-4-4-4-2-2-2-2----------|
|--8-8-8-8--8-8-8-8--6-6-6-6--4-4-4-4-2-2-2-2----------|

[ Tab from: http://www.guitartabs.cc/tabs/e/exies/what_you_deserve_tab.html ]
|------------------------------------------------------------------------------|
|------------------------------------------------------------------------------|
|------------------------------------------------------------------------------|
|-6-----4-----8-8-8-8-8-8-8-8-6-6-6-6-6-6-6-6-4-4-4-4-4-4-4-4-2-2-2-2-2-2-2-2--|
|-6-16x-4-16x-8-8-8-8-8-8-8-8-6-6-6-6-6-6-6-6-4-4-4-4-4-4-4-4-2-2-2-2-2-2-2-2--|
|-6-----4-----8-8-8-8-8-8-8-8-6-6-6-6-6-6-6-6-4-4-4-4-4-4-4-4-2-2-2-2-2-2-2-2--|
 
then
..WHat you Deserve...
|-------------------------------|
|-------------------------------|
|-------------------------------|
|--6-6-6-6--4---repeat-4x-------|
|--6-6-6-6--4-------------------|
|--6-6-6-6--4-------------------|


repeat verse

repeat chorus

then 
...What you deserve..
|-----------------------------------------------------------------------------------------|
|-----------------------------------------------------------------------------------------|
|--------6------------12-11-10v--------6-------------12-11-10v------6------------12v--15v-|
|--6-6-8---8v---6-6-8------------6-6-8---8v----6-6-8----------6-6-8---8v-6-6-8------------|
|-----------------------------------------------------------------------------------------|
|-----------------------------------------------------------------------------------------|
Comments