Exies - Ugly Chords & Tabs

 

Ugly Chords & Tabs

Exies Chords & Tabs

Version: 7 Type: Tab 0 ratings
1 star 2 stars 3 stars 4 stars 5 stars
comments

Ugly Tab

   
-------------------------------------------------------------------------------
			     Ugly - Exies
-------------------------------------------------------------------------------
Tabbed by: Dom
Email: pimpin_dom@comcast.net

Tuning: Drop D Flat

Verse: [clean]
Eb|-------------------------------------------------|
Bb|-------------------------------------------------|
Gb|-------------------------------------------------|
Db|-11------7------7-------9------------------------|
Ab|--9--x3--7--x2--5--x3---7---x2-------------------|
Db|--9------7------5-------7------------------------|

Pre-Chorus: [distorted]
Eb|-------------------------------------------------|
Bb|-------------------------------------------------|
Gb|-------------------------------------------------|
Db|---^5----^5----^5----^5--------------------------|
Ab|---^5----^5----^5----^5--------------------------|
Db|---^5----^5----^5----^5--------------------------| 

Chorus: [distorted]
Eb|-------------------------------------------------| 
Bb|-------------------------------------------------| 
Gb|-------------------------------------------------| 
Db|--2-----6-----1------8------10-------------------| 
Ab|--2-x2--6-x2--1-x4---8-x3---10-------------------| 
Db|--2-----6-----1------8------10-------------------| x3

[ Tab from: http://www.guitartabs.cc/tabs/e/exies/ugly_tab_ver_7.html ]
Eb|-------------------------------------------------| 
Bb|-------------------------------------------------| 
Gb|-------------------------------------------------| 
Db|--5------6------1-------8------------------------| 
Ab|--5-x8?--6-x8?--1-x8?---8-x1---------------------| 
Db|--5------6------1-------8------------------------| x1


Post-Chorus: [distorted]
Eb|-------------------------------------------------|
Bb|-------------------------------------------------|
Gb|-------------------------------------------------|
Db|-11------9------7-------9------------------------|
Ab|--9--x3--7--x2--5--x3---7---x2-------------------|
Db|--9------7------5-------7------------------------|


Bridge: [distorted]
Eb|-------------------------------------------------| 
Bb|-------------------------------------------------| 
Gb|-------------------------------------------------| 
Db|---5------6------8-------------------------------| 
Ab|---5--x8--6--x6--8-------------------------------| 
Db|---5------6------8-------------------------------| 
      x x    x x 

Outro: [distorted]
Eb|-------------------------------------------------|
Bb|-------------------------------------------------|
Gb|-------------------------------------------------|
Db|-11------7------7--------------------------------|
Ab|--9--x3--7--x2--5--x1----------------------------|
Db|--9------7------5--------------------------------|


Play: 
Verse x6
Pre-Chorus x1
Chorus x1
Post-Chorus x2
Verse x4
Pre-Chorus x1
Chorus x1
Bridge x5
Pre-Chorus x1
Chorus x1
Outro x3
Outro x1


| /  slide up
| \  slide down
| h  hammer-on
| p  pull-off
| ~  vibrato
| ^  harmonic
| x  Mute note
===============================================================================
Comments