Exies - Tired Of You Chords & Tabs

 

Tired Of You Chords & Tabs

Exies Chords & Tabs

Version: 1 Type: Bass Tab

Tired Of You Bass Tab

This is my second tab, im pretty sure its right, but im not
sure on the bridge, but other than that its right, good luck

Artist: The Exies
Song: Tired Of You
Album: Head For The Door


Intro

g|-------------------------------------------------------------------------|
d|--1-1------1-1-------1-1-------1-1---------------------------------------|
a|-----------------------------------------3-3--------3-3------3-3------3-3|
e|-------------------------------------------------------------------------|


Pre-Chorus
[ Tab from: http://www.guitartabs.cc/tabs/e/exies/tired_of_you_btab.html ]
g|-------------------------------------------------------------------------|
d|------------------------------------0-0----0-0-------0-0------0-0--------|
a|3-3--------3-3------3-3------3-3-----------------------------------------|
e|-------------------------------------------------------------------------|


CHORUS
g|----------------------------------------------------------------|
d|-1-1-1-1-1-1-1--------------------------------------------------|
a|---------------3-3-3-3-3-3-3-3------------------1-1-1-1-1-1-1-1-|
e|--------------------------------4-4-4-4-4-4-4-4-----------------|


Bridge

g|------------------------------------------------------------|
d|--1-1-1-1-1-1-1-1--3-3-3-3-3-3-3-3-3-3-5-5-5-5-5-5-5-5-5----|
a|------------------------------------------------------------|
e|------------------------------------------------------------|