Exies - Splinter Chords & Tabs

 

Splinter Chords & Tabs

Exies Chords & Tabs

Version: 1 Type: Tab 0 ratings
1 star 2 stars 3 stars 4 stars 5 stars
comments

Splinter Tab

   
----------------------------------------------------------------------------
			     Splinter - The Exies
----------------------------------------------------------------------------
Tabbed by: Naterack


Tuning:Db (Db,Ab,Db,Gb,Bb,eb)

e|--------------------------------------------------------------------------|
B|--------------------------------------------------------------------------|
G|--------------------------------------------------------------------------|
D|---235-3-5-3-5-3-5---235-3-5-3-5-3-5--------------------------------------|
A|---235-3-5-3-5-3-5---235-3-5-3-5-3-5--------------------------------------|
D|---235-3-5-3-5-3-5---235-3-5-3-5-3-5--------------------------------------|
pm...........................................
e|--------------------------------------------------------------------------|
B|--------------------------------------------------------------------------|
G|-----2----------4---------------------------------------------------------|
D|---3---3--5---3---3--5----------------------------------------------------|
A|--------------------------------------------------------------------------|
D|--------------------------------------------------------------------------|

e|--------------------------------------------------------------------------|
B|--------------------------------------------------------------------------|
G|--------------------------------------10----------------------------------|
D|---235-3-5-3-5-3-5---235-3-5-3-5-3-5--10---235-3-5-3-5-3-5----------------|
A|---235-3-5-3-5-3-5---235-3-5-3-5-3-5---8---235-3-5-3-5-3-5----------------|
D|---235-3-5-3-5-3-5---235-3-5-3-5-3-5-------235-3-5-3-5-3-5----------------|

e|--------------------------------------------------------------------------|
B|--------------------------------------------------------------------------|
G|-------------------10-----------------------------------------------------|
D|--235-3-5-3-5-3-5--10---235-3-5-3-5-3-5-----------------------------------|
A|--235-3-5-3-5-3-5---8---235-3-5-3-5-3-5-----------------------------------|
D|--235-3-5-3-5-3-5-------235-3-5-3-5-3-5-----------------------------------|

e|--------------------------------------------------------------------------|
B|--------------------------------------------------------------------------|
G|--------------------------------------------------------------------------|
D|---235-3-5-3-5-3-5---235-3-5-3-5-3-5--------------------------------------|
A|---235-3-5-3-5-3-5---235-3-5-3-5-3-5--------------------------------------|
D|---235-3-5-3-5-3-5---235-3-5-3-5-3-5--------------------------------------|
pm...........................................

e|--------------------------------------------------------------------------|
B|--------------------------------------------------------------------------|
G|--------------------------------------------------------------------------|
D|--2--5--7--9----2--5--7--9----2--5--7--9----2--5--7--9--------------------|
A|--2--5--7--9----2--5--7--9----2--5--7--9----2--5--7--9--------------------|
E|--2--5--7--9----2--5--7--9----2--5--7--9----2--5--7--9--------------------|
[ Tab from: http://www.guitartabs.cc/tabs/e/exies/splinter_tab.html ]
e|--------------------------------------------------------------------------|
B|--------------------------------------------------------------------------|
G|-------2-4-----4-2-----2-4-----4-2-----2-4-----4-2-----2-4-----4-2--------|
D|---3-5-----3-5-----3-5-----3-5-----3-5-----3-5-----3-5-----3-5------------|
A|--------------------------------------------------------------------------|
E|--------------------------------------------------------------------------|

e|--------------------------------------------------------------------------|
B|--------------------------------------------------------------------------|
G|--------------------------------------10----------------------------------|
D|---235-3-5-3-5-3-5---235-3-5-3-5-3-5--10---235-3-5-3-5-3-5----------------|
A|---235-3-5-3-5-3-5---235-3-5-3-5-3-5---8---235-3-5-3-5-3-5----------------|
D|---235-3-5-3-5-3-5---235-3-5-3-5-3-5-------235-3-5-3-5-3-5----------------|

e|--------------------------------------------------------------------------|
B|--------------------------------------------------------------------------|
G|-------------------10-----------------------------------------------------|
D|--235-3-5-3-5-3-5--10---235-3-5-3-5-3-5-----------------------------------|
A|--235-3-5-3-5-3-5---8---235-3-5-3-5-3-5-----------------------------------|
D|--235-3-5-3-5-3-5-------235-3-5-3-5-3-5-----------------------------------|

e|--------------------------------------------------------------------------|
B|--------------------------------------------------------------------------|
G|--------------------------------------------------------------------------|
D|---235-3-5-3-5-3-5---235-3-5-3-5-3-5--------------------------------------|
A|---235-3-5-3-5-3-5---235-3-5-3-5-3-5--------------------------------------|
D|---235-3-5-3-5-3-5---235-3-5-3-5-3-5--------------------------------------|
pm...........................................

e|--------------------------------------------------------------------------|
B|--------------------------------------------------------------------------|
G|--------------------------------------------------------------------------|
D|--2--5--7--9----2--5--7--9----2--5--7--9----2--5--7--9--------------------|
A|--2--5--7--9----2--5--7--9----2--5--7--9----2--5--7--9--------------------|
E|--2--5--7--9----2--5--7--9----2--5--7--9----2--5--7--9--------------------|

e|--------------------------------------------------------------------------|
B|--------------------------------------------------------------------------|
G|-------2-4-----4-2-----2-4-----4-2-----2-4-----4-2-----2-4-----4-2--------|
D|---3-5-----3-5-----3-5-----3-5-----3-5-----3-5-----3-5-----3-5------------|
A|--------------------------------------------------------------------------|
E|--------------------------------------------------------------------------|

e|--------------------------------------------------------------------------|
B|--------------------------------------------------------------------------|
G|--------------------5--7-10--7--5--7-10-12-----5--7-10--7--5--7-10-12-----|
D|---2----2-2---0-----x--x--x--x--x--x--x--x-----x--x--x--x--x--x--x--x-----|
A|---2----2-2---0-----3--5--8--5--3--5--8-10-----3--5--8--5--3--5--8-10-----|
E|---2----2-2---0-----------------------------------------------------------|

e|--------------------------------------------------------------------------|
B|--------------------------------------------------------------------------|
G|---14--12--11---14--12--16--14--12--11--14--12----------------------------|
D|----x---x---x----x---x---x---x---x---x---x---x----------------------------|
A|---12--10---9---12--10--14--12--10---9--12--10----------------------------|
E|--------------------------------------------------------------------------|

| /  slide up
| \  slide down
| h  hammer-on
| p  pull-off
| ~  vibrato
| +  harmonic
| x  Mute note
============================================================================
Comments