Exies - My Goddess Chords & Tabs

 

My Goddess Chords & Tabs

Exies Chords & Tabs

Version: 4 Type: Tab 0 ratings
1 star 2 stars 3 stars 4 stars 5 stars
comments

My Goddess Tab

   
THIS IS SONG IS PLAYED IN DROP D TUNING
THE RIFFS ARE VERY EASY AND THERE IS NO
SOLO.
WHOLE SONG IS PLAYED IN DISTORTION

        INTRO 
E--------------------------------------
B--------------------------------------
G--------------------------------------
D-6-88-777777--------------------------
A-6-88-777777--X4----------------------
D-6-88-777777--------------------------

        VERSES
E--------------------------------------
B--------------------------------------
G--------------------------------------
D-8 8-8 8-11 11-9 9--------------------
A-8 8-8 8-11 11-9 9--------------------
D-8 8-8 8-11 11-9 9--------------------
[ Tab from: http://www.guitartabs.cc/tabs/e/exies/my_goddess_tab_ver_4.html ]
        CHORUS G1
E--------------------------------------
B--------------------------------------
G--------------------------------------
D-8----8-6-4----8----10----------------
A-8-X8-6-4-4-X8-6-X3- 8-X5-------------
D-8--------4---------------------------
   REPEAT X8 X8 X3 X5 REPRESENTS STRUM PATTERN

       CHORUS G2 
E--------------------------------------
B--------------------------------------
G--------------------------------------
D-6-888-6-88---------------------------
A--------------------------------------
D--------------------------------------

   PART AT NOW YOU SEE
IS DONE IN R-PAGIO I PLAY LIKE
THIS.
E-8-6----------------------------------
B-8-6----------------------------------
G-8-6-8--------------------------------
D-8-6-8--------------------------------
A-----6--------------------------------
D--------------------------------------

THAT'S PRETTY MUCH IT WHOLE SONG. LISTEN TO SONG TO PERFECT.
IT'S EASY THOUGH.
Comments