Exies - My Goddess Chords & Tabs

 

My Goddess Chords & Tabs

Exies Chords & Tabs

Version: 3 Type: Tab 0 ratings
1 star 2 stars 3 stars 4 stars 5 stars
comments

My Goddess Tab

The Exies
"My goddess"
its 100% right 

Intro(x3)
E|-------------------------------
B|-------------------------------
G|-------------------------------
D|-------------------------------
A|-7---9--9---8-8-8--------------
E|-5---7--9-0-6-6-6-0------------

Verse(x2) (i was knee deep, in a sick love...)
E|----------------------------
B|----------------------------
G|----------------------------
D|----------------7-7----5-3--
A|--9-9----9-9----5-5----3-3--
E|--7-7----7-7----------------

[ Tab from: http://www.guitartabs.cc/tabs/e/exies/my_goddess_tab_ver_3.html ]
Chorus(x2)(gone i dont believe in you now...)
E|---------------------------------
B|---------------------------------
G|---------------------------------
D|--9-9-9-9-9--7-7--9-9-9----------
A|--9-9-9-9-9--5-5--7-7-7--5--5-5--
E|--7-7-7-7-7--------------3--3-3--

Interlude (now you see what you get when you...)
E|-----------------------------------
B|---------------------------------
G|--7--9--7--9---5--9--5----------------
D|--7--9--7--9---5--9--5--2-------------
A|--5--7--5--7---3--7--3--2-------------
E|------------------------0-------------



Riff  This is the only riff in the song but i dont know where
you put it so thats wut you can do to figure it out.
E|---------------------------
B|---------------------------
G|---------------------------
D|--7-9-9-7-7-9-7-9----------
A|---------------------------
E|---------------------------


Email me with all corrections
Mnkysrattknme912@yahoo.com
Comments