Exies - My Goddess Chords & Tabs

 

My Goddess Chords & Tabs

Exies Chords & Tabs

Version: 2 Type: Tab 0 ratings
1 star 2 stars 3 stars 4 stars 5 stars
comments

My Goddess Tab

Tuning EBGDAD

INTRO
Guitar 1 & 2
E----------------------------------|
B----------------------------------|
G----------------------------------|
D-6-/-8-8-7-7-777-6-3--------------|
A-6-/-8-8-7-7-777-6-3--------------|
D-6-/-8-8-7-7-777-6-3--------------|

VERSE
Guitar 1
E-----------------------------------------|
B-----------------------------------------|
G-3-3--3-3--6-6--4-4--3-3--3-3-------4-4--|
D-3-3--3-3--6-6--4-4--3-3--3-3--6-6--4-4--|
A-1-1--1-1--4-4--2-2--1-1--1-1--6-6--2-2--|
D-------------------------------6-6-------|
Guitar 2    (first vers only)
E-----------------------------------------|
B-----------------------------------------|
G-3-3--3-3--6-6--4-4--3-3--3-3--6-6--4-4--|
D-3-3--3-3--6-6--4-4--3-3--3-3--6-6--4-4--|
A-1-1--1-1--4-4--2-2--1-1--1-1--4-4--2-2--|
D-----------------------------------------|
[ Tab from: http://www.guitartabs.cc/tabs/e/exies/my_goddess_tab_ver_2.html ]
Guitar 2   (second verse only)
E------Part---A-----------|	|--------Part B---------|
B-------------------------|	|-----------------------|
G-3-3--3-3--6-6--4-4--3-3|	|----------3-/-6-\-3----|
D-3-3--3-3--6-6--4-4--3-3|	|----3-/-6-----------6--|
A-1-1--1-1--4-4--2-2--1-1|     |-----------------------|
D-------------------------|     |-----------------------|



CHORUS
Guitar #1
E--------------------------------------------------------|
B--------------------------------------------------------|
G--------------666-/-8888888-------------666-/-8888888---|
D--/8888888888-666-/-8888888--4444444444-666-/-8888888---|
A--/8888888888-444-/-6666666--4444444444-444-/-6666666---|
D--/8888888888----------------4444444444-----------------|

Guitar #2
 
E------------------|
B------------------|
G------------------| x 8
D--6/88\6-/-88-----|
A------------------|
D------------------|

After chorus

E------------------|
B------------------|
G------------------|
D--6/88\6-/-88-----|
A------------------|
D------------------|


BRIDGE
guitar 1 
 
E---------------------------------------|
B---------------------------------------|
G--6--8--6--8--6-8-6--8-8-6--6-8-6--8---|
D--6--6--6--6--4------8------6------8---|
A--4--6--3--6--4------6------4------6---|
D---------------------------------------|


ORDER
Intro x4
Verse x1
Chorus x1
Verse x1
Chorus x1
Intro x8
Bridge x1
Chorus x1
Intro x6

Tell me what u think of the tab. email me at blackcar41@aol.com
Comments