Exies - My Goddess Chords & Tabs

 

My Goddess Chords & Tabs

Exies Chords & Tabs

Version: 1 Type: Bass Tab 0 ratings
1 star 2 stars 3 stars 4 stars 5 stars
comments

My Goddess Bass Tab

--------------------------------------------------------------------------------
                           My Goddess - My The Exies
--------------------------------------------------------------------------------

Artist: The Exies
Song Title: My Goddess
Album: Inertia
Tabbed by zero is great man.
Tunning: EADG :Standard: Right

Intro: 
G|---------------------------|
D|---------------------------|
A|---------------------------|
E|-4/6-6-6--5-5-5-5--4-4-4-4-|
[ Tab from: http://www.guitartabs.cc/tabs/e/exies/my_goddess_btab.html ]
Verse:
G|-----------------------|
D|-----------------------|
A|-1-1---1-1---4-4---2-2-|
E|-----------------------|

Chorus
G|----------------------------------------------------------|
D|----------------------------------------------------------|
A|------------4-4-4--6-(x7)------------4-4-4--6-6-6-6-6-6-6-|
E|-4/6-(x10)--------------------2-(x8)----------------------|

Bridge: (Sorry, but this is a guitar riff.)

Outro: 
G|---------------------------|
D|---------------------------|
A|---------------------------|
E|-4/6-6-6--5-5-5-5--4-4-4-4-|

================================================================================
Comments