Exies - Kickout Chords & Tabs

 

Kickout Chords & Tabs

Exies Chords & Tabs

Version: 1 Type: Tab 0 ratings
1 star 2 stars 3 stars 4 stars 5 stars
comments

Kickout Tab

   
                ********************************************
                ***                 eXiEs                ***
                ***                KiCkouT               ***
                ********************************************
Intro/Chorus
lead
e-------------------------------
b-------------------------------
g-------------------------------
d-1-1-1/5-1-1-1-1/5-1-1-1-1/5-1-
a-------------------------------
D-------------------------------

rythm  comes in
e---------------------------------------
b---------------------------------------
g---------------------------------------
d-1-1-1/5-1-1-1/5-1-1-1-1/5-1-0-0-0-1---
a---------------------------------------
D---------------------------------------
[ Tab from: http://www.guitartabs.cc/tabs/e/exies/kickout_tab.html ]
e---------------------------------------
b---------------------------------------
g---------------------------------------
d-1-1-1/5-1-1-1/5-1-1-1-1/5-1-0-0-0-1---
a---------------------------------------
D---------------------------------------

Rythm
e---------------------------------------
b---------------------------------------
g---------------------------------------
d-----------------------------------7-8-
a-1-1-1-1-1-6-6-6-6-6-3-3-3-3-3-6-6-5-6-
D-1-1-1-1-1-6-6-6-6-6-3-3-3-3-3-6-6-----

e-----------------------------
b-----------------------------
g-----------------------------
d-----------------------------
a-1-1-1-1-1-6-6-6-6-6-3-3-3-3-
d-1-1-1-1-1-6-6-6-6-6-3-3-3-3-

Verse-keep repeating this
e-----------------------------
b-----------------------------
g-----------------------------
d-----------------------------
a-----------------------------
d-1-1-1-1-1-6-6-6-6-6-6-6-6-6-

i cant figure out the chord here i just play C
so try it
Comments