Exies - Hey You Chords & Tabs

 

Hey You Chords & Tabs

Exies Chords & Tabs

Version: 3 Type: Tab

Hey You Tab

E|-----------------------------------------|---------------------|
B|-----------------------------------------|---------------------|
G|-----7h8-7-----7h8-7-----7h8-7-----7h8-7-|---------------------|
D|---6---------6---------6---------6-------|---6---------6--x-x--|
A|-8---------8---------8---------8---------|-8---------8----x-x--|
E|-----------------------------------------|----------------x-x--|

 P.M-------------------->
E|------------------------|
B|------------------------|
G|------------------------|
D|------------------------|
A|------------------------|
E|-6-4-4-6-4-4-3-3-4-3-4--|

E|---------------------------|
B|---------------------------|
G|---------------------------|
D|-8--6-6--8--6-6--5-5-6-5-6-|
A|-8--6-6--8--6-6--5-5-6-5-6-|
E|-6--4-4--6--4-4--3-3-4-3-4-|
[ Tab from: http://www.guitartabs.cc/tabs/e/exies/hey_you_tab_ver_3.html ]
E|------------------------------------------------------|
B|------------------------------------------------------|
G|------------------------------------------------------|
D|-4--4--4-4-4---6--6--6-6-6---8--8--8-8-8--8--8--8-8-8-|
A|-4--4--4-4-4---6--6--6-6-6---8--8--8-8-8--8--8--8-8-8-|
E|-2--2--2-2-2---4--4--4-4-4---6--6--6-6-6--6--6--6-6-6-|

E|------------------------------------------------------------|
B|----------15B-------------15B-----------15B-------------15B-|
G|----13-15-----15----13-15---------13-15-----15----13-15-----|
D|-15--------------15------------15--------------15-----------|
A|------------------------------------------------------------|
E|------------------------------------------------------------|

E|-------18-------18----------------------|
B|-18h21----18h21----18h21----------------|
G|-------------------------20-19-20-19-20-| X4
D|----------------------------------------|
A|----------------------------------------|
E|----------------------------------------|