Exies - Genius Chords & Tabs

 

Genius Chords & Tabs

Exies Chords & Tabs

Version: 1 Type: Tab

Genius Tab

verse
e(--------x-------x-------x----------)
b(------4-x-----4-x-----4-x-----4-44-)
g(------3-x-----3-x-----3-x-----3-33-)
d(--1-1---x-1-1---x-------x-1-1------)
a(--1-1---x-2-2---x-3-3---x-2-2------)
E(--------x-------x-1-1---x----------)

chorus is the same riff as the verse

chorus and verse(lead)
e(-----------------)
b(----11---11---11-)
g(--8----8----8----)
d(-----------------)
a(-----------------)
E(-----------------)
[ Tab from: http://www.guitartabs.cc/tabs/e/exies/genius_tab.html ]
bridge                    (x2)
e(------------------)(-----------------------------------)
b(----4-3-----------)(-----------------------------------)
g(--3-----4---3-4-3-)(-----------------------------------)
d(------------------)(--11111111111111113333333311111111-)
a(------------------)(--11111111222222223333333322222222-)
E(------------------)(------------------11111111---------)

bridge and last chorus(lead)  (x2)          (x4)
                             e(------------)(------------)
                             b(------------)(------------)
                             g(------------)(------------)
                             d(--5---6---8-)(--5---4---1-)
                             a(------------)(------------)
                             E(------------)(------------)