Exies - Fsos Chords & Tabs

 

Fsos Chords & Tabs

Exies Chords & Tabs

Version: 1 Type: Tab 0 ratings
1 star 2 stars 3 stars 4 stars 5 stars
comments

Fsos Tab

Song:  F.S.O.S.
Album: Head For The Door
Band:  The Exies
mrFood Tabbed it!

Tuning: Standard

Distorted Throughout

Intro/Main Riff (0:01) (/=Slide):
e|--------------------------------------|
B|--------------------------------------|
G|--------------------------------------|
D|-----------------------------8-8-8-8--|
A|--5-5-5-/4/3-3-3-/5/8-8-8-8--6-6-6-6--|
E|--3-3-3-/2/1-1-1-/3/6-6-6-6-----------|

Pre-Chorus (0:16, 1:08, 1:45) (/=Slide):
e|-----------------------------------------------------|
B|-----------------------------------------------------|
G|-----------------------------------------------------|
D|--8-8-8-8-8-8-8-8-8-8-8-8-8-8-8-8/5-5-5-5-5-5-5-5-5--|
A|--6-6-6-6-6-6-6-6-6-6-6-6-6-6-6-6/3-3-3-3-3-3-3-3-3--|
E|-----------------------------------------------------|

Chorus (0:23, 1:16, 2:00) (/=Slide):
e|--------------------------------------|
B|--------------------------------------|
G|--------------------------------------|
D|-----------------------------8-8-8-8--|
A|--5-5-5-/4/3-3-3-/5/8-8-8-8--6-6-6-6--|
E|--3-3-3-/2/1-1-1-/3/6-6-6-6-----------|
[ Tab from: http://www.guitartabs.cc/tabs/e/exies/fsos_tab.html ]
Post-Chorus 1 (0:38):
e|---------------|
B|---------------|
G|---------------|
D|---------------|
A|---------------|
E|--3-3-3--2--1--|

Post-Chorus 2 (0:46, 2:30):
e|-----------------------|
B|-----------------------|
G|-----------------------|
D|-----------------------|
A|--5-5-5--4--3-3--8--0--|
E|--3-3-3--2--1-1--6--0--|

Verse (0:53) (/=Slide. ~=Let Note Ring):
e|--------------------------------------|
B|--------------------------------------|
G|--------------------------------------|
D|--------------------------------------|
A|----------------------------6-6-6-----|
E|--3~~3~~/2/1~~1~~/3/6~~6~~0-------6/--|

Solo (1:31) (^=Bend, ~=Let Note Ring) (w/Wah):
 |-------------------------Vibrato|~~~|
e|--------------------------------|---|
B|--------------------------------v---|
G|--0~~~~3~~5-3-5^(1/2)--0-0--5~3~5~~~|
D|------------------------------------|
A|------------------------------------|
E|------------------------------------|

Song Progression
-Intro/Main Riff..(0:01)
-Pre-Chorus.......(0:16)
-Chorus...........(0:23)
-Post-Chorus 1....(0:38)
-Post-Chorus 2....(0:46)
-Verse............(0:53)
-Pre-Chorus.......(1:08)
-Chorus...........(1:16)
-Solo.............(1:31)
-Pre-Chorus.......(1:45)
-Chorus...........(2:00)
-Post-Chorus 2....(2:30)
Comments