Exies - Creeper Kamikaze Chords & Tabs

 

Creeper Kamikaze Chords & Tabs

Exies Chords & Tabs

Version: 2 Type: Tab 0 ratings
1 star 2 stars 3 stars 4 stars 5 stars
comments

Creeper Kamikaze Tab

   
Band- Exies
Song- Creeper Kamikaze

Tuning is Down Half step (at least for me it was)

If you made me guess I'd say it sounds like
he is using a nylon guitar? What do I know?
Maybe his strings were just old ;)


Any notes with ( ) around them are optional, it sounds like
he's muting them, so you can do that too..

Chord Chart:
    Bm    G    E   F#    A
E:  -2-  -3-  -0-  -2-  -5-
B:  -3-  -3-  -0-  -2-  -5-
G:  -4-  -4-  -1-  -3-  -6-
D:  -4-  -5-  -2-  -4-  -7-
A:  -2-  -5-  -2-  -4-  -7-
E:  ---  -3-  -0-  -2-  -5-

Here is the intro as I play it..
The spacing might not be right, its just ear it :)

E-----------0-2-0---------------------------0-2-0--------------------|
B------3----------0-3---2-0-------------3---------0-3---2-0----------|
G--------4------------0-------------------4-----------0--------------|
D----4--------------------------------4------------------------------|
A-2---------0---------------5-4-2-0-------------------------5-4-2-0--|
E-------------------3---------------4-------4-------3----------------|


Here is the first vocals: (repeat this twice

  Where your headed there is ......
E---------2--------------3-----------------0-------------3-----------|
B-------3---3---------------3----------------0--------------3--------|
G-----4-------4---------------4----------1-----1--------------4------|
D---4-----------4------5--------5------2---------2-----5--------5----|
A-2------------------5---------------2---------------5---------------|
E------------------3---------------0---------------3-----------------|

 Here is the Quiet version of the chorus

 Sooooo live.... live on through me......
E---------2---------------0---------------0---------------2----------|
B-----3-----3---------3-----3---------------0---------------2--------|
G-------4-----4---------4-----4---------4-----4---------3-----3------|
D---4-----------4---4-----------4-----5---------5-----4---------4----|
A-2---------------0-----------------5---------------4----------------|
E---------------------------------3---------------2------------------|

forrrgeeet       the crepper kamiiiiiikaazeeee
E---------2---------------0------------(0)------(2)------------------|
B-----3-----3---------3-----3----------(0)------(2)------------------|
G-------4-----4---------4-----4---------1--------3-------------------|
D---4-----------4---4-----------4-------2--------4-------------------|
A-2---------------0---------------------2--------4-------------------|
E---------------------------------------0--------2-------------------|


For the rest of the verse replay the intro once, then it sounds
to me like he's doing some of the same picking as above but in this
chord progression


Bm              G
Going down on a one way flight
E                G
 Your just dying to be right

Repeat for Next part of verse

Then comes the Chorus i'm just gonna
cover the basic chords. He also plays
the part he plays under the quiet version
of the chorus up above, this is just the
distorted guitars chords.
[ Tab from: http://www.guitartabs.cc/tabs/e/exies/creeper_kamikaze_tab_ver_2.html ]
P.s. About this, You can play this two ways
When he goes from Bm to A you can either
completely change from the Bm to the A chord
like normal OR you can still hold the Bm cord
but simply take your index finger off the A string
(2nd string 2nd fret) this works well too.. Also
I'm not positive of the E chord, I couldn't decide
if it wasn E or a G# but G# doesnt sound right and
E makes more sense :) Use your ear :)

   Bm        A               G
So Live,     Live on through me

    F#         Bm
Its time to forget

    A           E     G  F#
The creeper Kamakazi


Here's the quiet bridge part in the middle of the song
 I'm TOTALLY guessing here.. its pretty tough to hear it :)

 So forgeeeet.....the things you cannot hide...cuz when the truth...
E---------3---------------5---------------3---------------0---------|
B-----------3---------------5---------3-----3---------3-----3-------|
G-------4-----4---------6-----6---------4-----4---------4-----4-----|
D-----5---------5-----7---------7---4-----------4---4-----------4---|
A---5---------------7-------------2---------------0-----------------|
E-3---------------5-------------------------------------------------|

 comes in...... Your soul opens wide.....
E-----------0-------------------------------------------------------|
B-------------0-----------------------------------------------------|
G---------0-----0---------------------------------------------------|
D-------2---------2-----4-4-4-4-4-4-4-4-4-4-------------------------|
A-----2-----------------4-4-4-4-4-4-4-4-4-4-------------------------|
E---0-------------------2-2-2-2-2-2-2-2-2-2-------------------------|
                       (I just palm mute this and keep strumming it
                        its probably waaay off but it works, or you
                        can be fancy and every other strum use your
                        middle finger to hammer on the 3rd fret on
                        the E string and alternet between 2 and 3)


And coming out of that , again i'm guesing the best I can here
(distorted)

its either this :             OR     This:
E--------------------------       ----------------------------------|
B--------------------------       ----------------------------------|
G--------------------------       ----------------------------------|
D-9-9-9\7-7-5-5-5-5\4-4-4--       -9-9-9\7\-6-5-5-5-5\4-4-4---------|
A-9-9-9\7-7-5-5-5-5\4-4-4--       -9-9-9\7\-6-5-5-5-5\4-4-4---------|
E-7-7-7\5-4-3-3-3-3\2-2-2--       -7-7-7\5\-4-3-3-3-3\2-2-2---------|

After the above part, go into the chorus a few more times
Then play the above part prety much the same (i think he
might hold the last chord a bit longer) and then
play this as the distortoin is fading..


Ending:
E---------0-2-0---------------------------0-2--0-----3-|
B-----3---------0-3---2-0-------------3--------------3-|
G-------4-----------0-------------------4------------4-|
D---4-------------------------------4----------------5-|
A-2-------0---------------5-4-2-0--------------------5-|
E-----------------0---------------4------------------3-|
Comments