Exies - Creeper Kamikaze Chords & Tabs

 

Creeper Kamikaze Chords & Tabs

Exies Chords & Tabs

Version: 1 Type: Tab 0 ratings
1 star 2 stars 3 stars 4 stars 5 stars
comments

Creeper Kamikaze Tab

-------------------------------------------------------------------------------
			     CREEPER KAMIKAZE - The Exies
-------------------------------------------------------------------------------
Tabbed by: Airik
Email:Cartman681@hotmail.com
Tuning: Standard

im still workin on this song but heres what i have sofar. i am starting to
think the intro is played with a capo, but o well.
[ Tab from: http://www.guitartabs.cc/tabs/e/exies/creeper_kamikaze_tab.html ]
Intro
e|---------------------------------------------------------------------------|
B|----4---4-6-4---2-1---------------2---4-6-4---2-1--------------------------|
G|------3-------3-----3-----------3---3-------3-----3------------------------|
D|---3-----------------------------------------------------------------------|
A|-1--------------------4-3-1-------------------------4-3-1---1--------------|
E|--------4-------2-----------4-3-------3-------2-----------4----------------|
Comments