Evolution - Killer Instinct Chords & Tabs

 

Killer Instinct Chords & Tabs

Evolution Chords & Tabs

Version: 2 Type: Tab 0 ratings
1 star 2 stars 3 stars 4 stars 5 stars
comments

Killer Instinct Tab

INTRO X2
E -----------------------------------
B -----------------------------------
G -----------------------------------
D -----------------------------------
A -9-9-9-9-9-9-9-9--5-5-5-5-5-5-5-5--7-7-7-7-7-7-7-7--3-3-3-3-3-3-3-3
E -7-7-7-7-7-7-7-7--3-3-3-3-3-3-3-3--5-5-5-5-5-5-5-5--1-1-1-1-1-1-1-1
[ Tab from: http://www.guitartabs.cc/tabs/e/evolution/killer_instinct_tab_ver_2.html ]
VERSE X3
E -----------------------------------
B -----------------------------------
G -----------------------------------
D -----------------------------------
A -9-9-9-9--5-5-5-5--7-7-7-7--3-3-3-3
E -7-7-7-7--3-3-3-3--5-5-5-5--1-1-1-1
 
SOLO X2
E -------------------------
B -------------------------
G -------------------------
D -------------------------
A -9-9-9--5-5-5-7-7-7-3-3-3
E -7-7-7--3-3-3-5-5-5-1-1-1

DO THE VERSE X3 AGAIN THEN PLAY THE INTRO X2 THEN THE VERSE X3 THEN PLAY

OUTRO X2
E -------------------
B -------------------
G -------------------
D -------------------
A -2-2--5-5--7-7--9-9
E -0-0--3-3--5-5--7-7

THEN
E ----------------------
B ----------------------
G ----------------------
D ----------------------
A -2-2--5-5--7-7--9-9-------2
E -0-0--3-3--5-5--7-7-------0
Comments