Everyone Else - Cereal Chords & Tabs

 

Cereal Chords & Tabs

Everyone Else Chords & Tabs

Version: 2 Type: Tab 0 ratings
1 star 2 stars 3 stars 4 stars 5 stars
comments

Cereal Tab

#----------------------------------PLEASE NOTE--------------------------------#
#This file is the author's own work and represents their interpretation of the#
#song. You may only use this file for private study, scholarship, or research.#
#-----------------------------------------------------------------------------#
#-- File created with Instab - http://www.pconline.com/~smcarey/instab.html --#
#-----------------------------------------------------------------------------#

Author/Artist: Everyone Else
Title: Cereal
Transcribed by: Jack Newcombe
Email: o_redballoons_o@hotmail.com

INTRO PT 1

e|----------------------------------------------------------------------------|
B|----------------------------------------------------------------------------|
G|------33-22-33------33-22-33------33-22-33------33-22-33----x2----7---------|
D|----------------5-5-----------7-7-----------5-5-------------------7---------|
A|--5-5-------------------------------------------------------------5---------|
E|----------------------------------------------------------------------------|

                                                                   let ring...

INTRO PT. 2

e|----------------------------------------------------------------------------|
B|----------------------------------------------------------------------------|
G|--7--7--7-------------------------------------------------------------------|
D|--7--7--7-----4-4--4--4-----5--5--5--5-5--5--5-----7-7-7-7------------------|
A|--5--5--5-----4-4--4--4-----5--5--5--5-5--5--5-----7-7-7-7------------------|
E|--------------2-2--2--2-----3--3--3--3-3--3--3-----5-5-5-5------------------|

You have to listen to the song to get the right rhythm for this..

VERSE PT. 1

e|----------------------------------------------------------------------------|
B|----------------------------------------------------------------------------|
G|-7--------------------------------------------------------------------------|
D|-7-----------------------------------------------------------7---7----------|
A|-5-------------------------------------------------------------7------------|
E|----------------------------------------------------------------------------|
 let ring...

VERSE PT. 2

------------------------------------------------------------------------------|
------------------------------------------------------------------------------|
--x-x-7--x-x-7--x-x-7--x-x-7--------------------------------------------------|
--x-x-7--x-x-7--x-x-7--x-x-7--------x4----------------------------------------|
------------------------------------------------------------------------------|
------------------------------------------------------------------------------|

CHORUS
[ Tab from: http://www.guitartabs.cc/tabs/e/everyone_else/cereal_tab_ver_2.html ]
------------------------------------------------------------------------------|
------------------------------------------------------------------------------|
--7-7-7-7-7-7-7-7-------------------------------------------------------------|
--7-7-7-7-7-7-7-7--3-3-3-3-3-3-3-3--5-5-5-5-5-5-5-5--7-7-7-7-7-7-7-7----------|
--5-5-5-5-5-5-5-5--3-3-3-3-3-3-3-3--5-5-5-5-5-5-5-5--7-7-7-7-7-7-7-7----------|
-------------------2-2-2-2-2-2-2-2--3-3-3-3-3-3-3-3--5-5-5-5-5-5-5-5----------|

CHORUS END

------------------------------------------------------------------------------|
------------------------------------------------------------------------------|
--4b5r4-4-2-4-----------------------------------------------------------------|
------------------------------------------------------------------------------|
------------------------------------------------------------------------------|
------------------------------------------------------------------------------|

INTERLUDE

------------------------------------------------------------------------------|
------------------------------------------------------------------------------|
--7----7---7------------------------------------------------------x2----------|
--7--7---7---7---4----4---4-----5---5---5-----7---7---7-------------------0---|
--5--------------4--4---4---4---5-5---5---5---7-7---7---7---------------------|
-----------------2--------------3-------------5-------------------------------|

The last note is played after you have played the first bit twice through


SAXOPHONE PART (I only put this in for fun)

------------------------------------------------------------------------------|
------------------------------------------------------------------------------|
-4-4---7-5-4------4-4---7-5-4------4-4---7-5-4------4-4-----------------------|
-----7-------5--------7-------5--------7-------5--------7-5--0-5-7------------|
------------------------------------------------------------------------------|
------------------------------------------------------------------------------|


--------------------
Order       |Played |
------------+-------|
INTRO PT. 1 |       |
INTRO PT. 2 |   x2  |
VERSE PT. 1 |       |
VERSE PT. 2 |       |
INTRO PT. 2 |   x2  |
VERSE PT. 1 |       |
VERSE PT. 2 |       |
CHORUS      |   x2  |
CHORUS END  |       |
INTRO PT. 2 |   x2  |
VERSE PT. 1 |       |
VERSE PT. 2 |       |
CHORUS      |   x2  |
INTERLUDE   |       |
VERSE PT. 2 |   x4  |  *
VERSE PT. 1 |       |  *
SAXAPHONE   |   x2  |
VERSE PT. 1 |       |  *
CHORUS      |   x2  |  *
INTRO PT  2 |   x4  |  *
--------------------|

e|-----|
B|-----|
G|--5--|
D|--7--| guitar finishes on this.
A|--7--| let ring.
E|-----|


e|-----|
B|-----|
G|-----| Sax finishes on this.
D|--0--|
A|-----|
E|-----|
Comments