Everymen - Song That Pleases The Mighty Chords & Tabs

 

Song That Pleases The Mighty Chords & Tabs

Everymen Chords & Tabs

Version: 1 Type: Tab 0 ratings
1 star 2 stars 3 stars 4 stars 5 stars
comments

Song That Pleases The Mighty Tab

   
---------------------------------------------------------------------------------------
                            The Song That Pleases The Mighty
                                     By The Everymen
---------------------------------------------------------------------------------------

If youve heard of the everymen, you'll know why i wrote this
I took me hours cause this is thier only speed metal song and its done very
well.  I love the everymen, and i hope they get big, but the worlds probly not
smart enough to pick up on a band that can emulate every style well.  Hail Ween!!

//////////////Speed Pick m
(H) Pinch Harmonics
Tune To Flat
H=Hammer
P+pull off
S\=Slide
Intro

E----------------------------------------------------------------
B----------------------------------------------------------------
G----------------------------------------------------------------
D---2/////////////3p2---0---------0------------------------------ Repeat 4X
A--2----------------3p2-0000000002-------------------------------
E-0---------------------0-------3----5(H)3(H)2(H)111111000000000-

Verse
[ Tab from: http://www.guitartabs.cc/tabs/e/everymen/song_that_pleases_the_mighty_tab.html ]
E-----------------------------------------------
B-----------------------------------------------
G-----------------------------------------------
D-222222222222\s141414141414141414141414141414--Repeat During Hays's Screams
A-222222222222\s141414141414141414141414141414--(Thats 4 Times)
E-00000000000000000000000000000000000000000000--

This Part is difficult. Play is as it it's read.  Speed Pick The E while keeping
the A and D ringing.

Chorus
E---------------------------------------------------
B---------------------------------------------------
G---------------------------------------------------
D---03---7------------------------------------------
A--0--4-6-8-----------------------------------------
E-0----5---9000000030201000302010003020100030201000-


E-----------------------------------------------------------
B-----------------------------------------------------------
G-----------------------------------------------------------
D-----------------------------------------------------------
A-222----444---55--5425425425425425452542222222222222222222-
E-000----000---00--0000000000000000000000000000000000000000-


I Can't Figure out the solo.  Andrew just goes nuts on his Floyd Rose with his
slide and uses a lot of Harmonics.  Very Slayer Reminiscent, but with an almost
creepy garcia Twang.

Enjoy!!
Comments