Everyday Sunday - Hangin On Chords & Tabs

 

Hangin On Chords & Tabs

Everyday Sunday Chords & Tabs

Version: 1 Type: Tab 0 ratings
1 star 2 stars 3 stars 4 stars 5 stars
comments

Hangin On Tab

----------------------------------------------------------------------------
			   Hangin' On - Everyday Sunday
----------------------------------------------------------------------------
Tabbed by: Joseph deBonoPaula
Email: leadguitarist@gamebox.net

Tuning: Standard

Riff 1

e|--------0-----0----------0---0-----0--0-----0--0-------------------------|
B|-----0----0-----------0---0------0--0-----0--0---------------------------|
G|------6-----6----------4---4------2--2-----2--2--------------------------|
D|---6----------------4-----------2--------2-------------------------------|
A|-4----------------2-----------0---------0--------------------------------|
E|-------------------------------------------------------------------------|

Intro- Riff 1 2x
Verse- Riff 1 4x
Chorus-Riff 1 4x
Bridge-Riff 1 4x

Chorus: 2x
[ Tab from: http://www.guitartabs.cc/tabs/e/everyday_sunday/hangin_on_tab.html ]
e|--0-2-4-0-2-0------------------------------------------------------------|
B|--0-4-6-0-4-2------------------------------------------------------------|
G|--1-4-6-1-4-2------------------------------------------------------------|
D|--2-4-6-2-4-2------------------------------------------------------------|
A|--2-2-4-2-2-0------------------------------------------------------------|
E|--0-2-4-0-2-0------------------------------------------------------------|

Bridges: 2x

e|-------------------------------------------------------------------------|
B|-------------------------------------------------------------------------|
G|-9-4-6-2-----------------------------------------------------------------|
D|-9-4-6-2-----------------------------------------------------------------|
A|-7-2-4-0-----------------------------------------------------------------|
E|-------------------------------------------------------------------------|

This is almost dead on. I didnt write repeated chords or it would have taken
weeks. Easy to play, but this is an awesome interpretation.
============================================================================
Comments