Everly Brothers - Devoted To You Chords & Tabs

 

Devoted To You Chords & Tabs

Everly Brothers Chords & Tabs

Version: 2 Type: Tab 0 ratings
1 star 2 stars 3 stars 4 stars 5 stars
comments

Devoted To You Tab

e ------------7------------7-------|
B ----5--------------4-------------|
G -------4---------4----4------4---|
D ----5--------------4-------------|
A ---------------------------------|
E ---------------------------------|
[ Tab from: http://www.guitartabs.cc/tabs/e/everly_brothers/devoted_to_you_tab_ver_2.html ]
-------------7--------------7------|
----5-------------4----------------|
-------4-------4------4---------4--|
----5-------------7----------------|
-----------------------------------|
-----------------------------------|

This is a slightly different to the one i last sent

Thanks

The Cohanman
Comments