Everlast - What Its Like Chords & Tabs

 

What Its Like Chords & Tabs

Everlast Chords & Tabs

Version: 9 Type: Tab 0 ratings
1 star 2 stars 3 stars 4 stars 5 stars
comments

What Its Like Tab

   
-----------3-1--3p1---------0-0------0   Intro Repeat 4x
---------3----------3-------1-1------1
-------2------------------2----------0
-----0------------------3----------2--
----------------------------------3---
--------------------------------------

Verse
Dm// FMaj7/// C// Dm/// Repeats a few times listen to the song
Dm:xx0231
FMaj7: xx3210
C x32010

Bridge
--1-1-1s3--3---1-1--1s3--5-3---------------- Repeats a few 
--3-3-3s5--5---3-3--3s5--5-5---------------- times
--2-2-2s4--4---2-2--2s4--4-4----------------
--0-0-0----0---0-0--0-----------------------
--------------------------------------------
--------------------------------------------
[ Tab from: http://www.guitartabs.cc/tabs/e/everlast/what_its_like_tab_ver_9.html ]
End
------1-------1------1----------0-----0-----0--------
--------3-------3------3----------1-----1-----1------
----2-----2-------2------2----2-----2-----2-----2----
--0-------------------------3------------------------
-----------------------------------------------------
-----------------------------------------------------

-----0-----0-----0---------1-----1-----1-------------
-------1-----1-----1---------3-----3-----3-----------
---------0-----0-----0---2-----2-----2-----2---------
----2------------------0-----------------------------
--3--------------------------------------------------
-----------------------------------------------------

Ok thats pretty close to the right thing, any corrections can be sent to 
spartan3186@computermail.net. You'll have to listen to the song to get the right number 
of repeats. Youll be able to tell when things change
Comments